Oops, an error
Loading. Please wait.

Como Vivir Sin Tí Tab

2 views 1 this week
no commentswrite comment
1 2 3 4 5
3 more votes to show rating
add to favorites
launch autoscroll
font size
0
reset
how to read this tab
guitar tuner
×
Best way to learn
"Como Vivir Sin Tí"
Autoscroll
slow
fast
+/-
esc
set tempo
stop
Bno para empezar la kncion c llama "como vivo sin ti"
ahi les va la corrección k le hice suena mejor
ps sta kncion va otra vez para Marlene, T EXTRAÑO
n verdad no sabs lo k s vivir sin ti TKM
tu mejor ka nadie sabias komo hacerme reir,
y al parecr tmb sabs komo hacerme llorar... :(
bno ps kreo k sta pregunta keda perfectamente para ti..

      ¿CÓMO VIVO SIN TI...?


E||----------7--7--9--9--11--11-----------------------------|
B||--7----7----------------------------7--9--7-----------7--|
G||-------8--8--8--9--9--11--11-----------------9-----------|
D||---------------------------------------------------------|
A||---------------------------------------------------------|
E||---------------------------------------------------------|


-----6--6--9--9----------------------------------7--7--9--9-|
--7---------------7----9-7---------------7----7-------------|
-----6--6--9--9------------9----8-------------8--8--8--9--9-|
--8-----------------------------9---------------------------|
------------------------------------------------------------|
------------------------------------------------------------|


-11--11---14--14----12-11-12-------9--12--11----------------|
-------------------------------12------------12-------------|
-11--11-----------------------------------------11----------|
------------------------------------------------------------|
------------------------------------------------------------|
------------------------------------------------------------|


--7/9----7-------------------------------------------------||
----------------7-----------7--7---------------------------||
-------------------9--8-----8--8---------------------------||
-----------------------------------------------------------||
-----------------------------------------------------------||
-----------------------------------------------------------||

B                          E
Me dices que te vas y que voy a estar bien
F#                 B
que nada pasará si tú me faltas
                                 E
que las heridas que nos deja un gran amor
    F#                 B
a todas por igual las cura el tiempo

B                           E
Que voy a acostumbrarme a vivir sin ti
    F#                 B
que te voy a olvidar en un suspiro
                               E
que nada es para siempre y que pasará
    F#                         B
que cuando salga el sol ya te habrás ido

B               B7                 E
No voy a acostumbrarme a estar sin ti
      F#                        B
te extraño y todavía no te has ido
         B7                   E
no hay forma de olvidarte para mi
    F#                      B
tu eres como el aire que respiro

B              B7          E
No sé como voy a vivir sin ti
  F#                           B
dejando atrás lo que más he querido
        B7                     E
no hay forma de olvidarte para mi
    F#                       B
tu eres como el aire que respiro

B E F# B

          B                                E
E||----------7--7--9--9--11--11-----------------------------|
B||--7----7----------------------------7--9--7--------------|
G||-------8--8--8--9--9--11--11-----------------9-----------|
D||---------------------------------------------------------|
A||---------------------------------------------------------|
E||---------------------------------------------------------|


      F#                          B
--------6--6--9--9--------12--11--9--------------------------|
--7--7-------------------------------12-12-------------------|
--------6--6--9--9-----11------------------------------------|
-----8-------------------------------------------------------|
-------------------------------------------------------------|
-------------------------------------------------------------|

B                          E
Me dices que te vas y que voy a estar bien
F#                 B
que nada pasará si tú me faltas
                                 E
que las heridas que nos deja un gran amor
    F#                 B
a todas por igual las cura el tiempo

B                           E
Que voy a acostumbrarme a vivir sin ti
    F#                 B
que te voy a olvidar en un suspiro
                               E
que nada es para siempre y que pasará
    F#                         B
que cuando salga el sol ya te habrás ido

B               B7                 E
No voy a acostumbrarme a estar sin ti
      F#                        B
te extraño y todavía no te has ido
         B7                   E
no hay forma de olvidarte para mi
    F#                      B
tu eres como el aire que respiro

B              B7          E
No sé como voy a vivir sin ti
  F#                           B
dejando atrás lo que más he querido
        B7                     E
no hay forma de olvidarte para mi
    F#                       B
tu eres como el aire que respiro

E     F#      B
Cómo vivo sin ti
E     F#      B
Cómo vivo sin ti
E     F#      B
Cómo vivo sin ti...
Suggest correction
Give kudos to tab author, rate the tab!
1 2 3 4 5
comments
print report bad tab
guest
You may want to rate the tab now too:
select rating
Wanna post a correction for this tab? Suggest correction