Oops, an error
Loading. Please wait.

Como Vivo Sin Tí Tab

29 views 3 this week
no commentswrite comment
1 2 3 4 5
3 more votes to show rating
add to favorites
×
Save as Personal and add changes to this tab that will be seen only by you. Learn more ›
×
You can save this tab as Personal to edit and correct it or add notes. All changes will be seen only by you. Learn more »
save as personal
new!
launch autoscroll
font size
0
reset
how to read this tab
guitar tuner
Autoscroll
slow
fast
+/-
esc
set tempo
stop
dedicado a todos los que alguna vez sufrieron por amor...

E||----------7--7--9--9--11--11-----------------------------|
B||--7----7----------------------------7--9--7-----------7--|
G||-------8--8--8--9--9--11--11-----------------9-----------|
D||---------------------------------------------------------|
A||---------------------------------------------------------|
E||---------------------------------------------------------|


-----6--6--9--9----------------------------------7--7--9--9-|
--7---------------7----9-7---------------7----7-------------|
-----6--6--9--9------------9-------8----------8--8--8--9--9-|
--8------------------------11------9------------------------|
------------------------------------------------------------|
------------------------------------------------------------|


-11--11---14--14----12--12-----7--9--12--11--7--------------|
------------------------------------------------7-----------|
-11--11-----------------------------------------------------|
------------------------------------------------------------|
------------------------------------------------------------|
------------------------------------------------------------|


--9----7---------------------------------------------------||
----------------7------------7--7--------------------------||
-------------------9----8----------------------------------||
-----------------------------------------------------------||
-----------------------------------------------------------||
-----------------------------------------------------------||
Suggest correction
Give kudos to tab author, rate the tab!
1 2 3 4 5
comments
print report bad tab
guest
Wanna post a correction for this tab? Suggest correction