Oops, an error
Loading. Please wait.

Mire Que Lindo Mi País Paisano Tab

35 views 1 this week
no commentswrite comment
1 2 3 4 5
3 more votes to show rating
add to favorites
launch autoscroll
font size
0
reset
how to read this tab
guitar tuner
Autoscroll
slow
fast
+/-
esc
set tempo
stop
Help us to improve Ultimate-Guitar.com Take our survey!
×
INTRO:
                    *
e|-------|-------|-------|-------|
b|-------|-------|-------|-------|
g|-------|---2---|---1---|-------|
D|---4-2-|-----4-|-2---0-|---2---|
A|-0-----|-4-----|-------|-4-----|
E|-------|-------|-------|-----4-|

e|-------|-------|-------|-------|---|
b|-------|-------|-------|-------|---|
g|-------|---2---|---1---|-------|---|
D|---4-2-|-----4-|-2---0-|---2---|---|
A|-0-----|-4-----|-------|-4-----|-0-|
E|-------|-------|-------|-----4-|---|


                             MI7 * (aqui empieza)
Mire que es lindo mi país paisano,
                             LA
si usted lo viera como yo lo vi,
                              MI7
un cielo limpio repartiendo estrellas,
          RE       MI7        LA
la madre tierra acunando el maìz.
            LA               MI7
Mire que es lindo mi país paisano,
         RE       MI7        LA
si usted lo viera como yo lo vi,


INTERLUDIO

               LA            MI7
e|--------9----9--------9----10--|
b|-----10---12-------10---12-----|
g|-7-9-----------7-9-------------|
D|-------------------------------|
A|-------------------------------|
E|-------------------------------|
               RE  MI7            LA
e|--------10-9-12--12-12-14-10-12-9-|
b|---9-12---------------------------|
g|-9--------------------------------|
D|----------------------------------|
A|----------------------------------|
E|----------------------------------|
               LA       MI7
e|--------9----9-----------------|
b|-----10---12-----9-10-12-10-9--|
g|-7-9-----------9---------------|
D|-------------------------------|
A|-------------------------------|
E|-------------------------------|
      MI          RE          LA
e|-14-12-------12-10-------10-9------9-|
b|----------12----------10--------10---|
g|-------13----------11---------9------|
D|-------------------------------------|
A|-------------------------------------|
E|-------------------------------------|
   MI      LA
e|-7-----7-----|
b|-----9---10--|
g|---9---------|
D|-------------|
A|-------------|
E|-------------|

          LA              MI7
Mire que lindo mi país paisano
                             LA
los cuatro rumbos que le conoci
                                MI7
si le han vendido una postal de afuera
     RE         MI7         LA
mire primero lo que tiene aquí
         LA               MI7
mire que lindo mi país paisano
        RE       MI7        LA
los cuatro rumos que le conoci.


INTERLUDIO

               LA            MI7
e|--------9----9--------9----10--|
b|-----10---12-------10---12-----|
g|-7-9-----------7-9-------------|
D|-------------------------------|
A|-------------------------------|
E|-------------------------------|
               RE  MI7            LA
e|--------10-9-12--12-12-14-10-12-9-|
b|---9-12---------------------------|
g|-9--------------------------------|
D|----------------------------------|
A|----------------------------------|
E|----------------------------------|
               LA       MI7
e|--------9----9-----------------|
b|-----10---12-----9-10-12-10-9--|
g|-7-9-----------9---------------|
D|-------------------------------|
A|-------------------------------|
E|-------------------------------|
      MI          RE          LA
e|-14-12-------12-10-------10-9------9-|
b|----------12----------10--------10---|
g|-------13----------11---------9------|
D|-------------------------------------|
A|-------------------------------------|
E|-------------------------------------|
   MI      LA
e|-7-----7-----|
b|-----9---10--|
g|---9---------|
D|-------------|
A|-------------|
E|-------------|

         LA                  MI7
Mire que lindo es mi país paisano
                             LA
si usted lo viera como yo lo vi
                          MI7
comprenderia el porque le pido
    RE         MI7          LA
lo que le pido cuando canto así.
         LA                  MI7
Mire que lindo es mi país paisano
      RE          MI7        LA
si usted lo viera como yo lo vi


INTERLUDIO 2

                  LA
e|-9/12-9/12-9/12-9----------|
b|------------------10---10--|
g|---------------------9-----|
D|---------------------------|
A|---------------------------|
E|---------------------------|
         MI7
e|-12/14-12/14-12/14-12-----------|
b|----------------------12----12--|
g|-------------------------13-----|
D|--------------------------------|
A|--------------------------------|
E|--------------------------------|
        LA
e|-9/12-9/12-14-16--|
b|------------------|
g|------------------|
D|------------------|
A|------------------|
E|------------------|

     MI          RE          LA
e|-14-12-------12-10-------10-9------9-|
b|----------12----------10--------10---|
g|-------13----------11---------9------|
D|-------------------------------------|
A|-------------------------------------|
E|-------------------------------------|
   MI      LA
e|-7-----7-----|
b|-----9---10--|
g|---9---------|
D|-------------|
A|-------------|
E|-------------|

          LA               MI7
Viera que lindo su país paisano
                               LA
rompa el boleto ese que tiene alli
                       MI7
la tierra sufre si la abandonamos
    RE          MI7                 LA
yo que usted lo pienso y me quedo aquí.
          LA               MI7
Viera que lindo su país paisano
      RE            MI7         LA
rompa el boleto ese que tiene alli


INTERLUDIO 2

                  LA
e|-9/12-9/12-9/12-9----------|
b|------------------10---10--|
g|---------------------9-----|
D|---------------------------|
A|---------------------------|
E|---------------------------|
         MI7
e|-12/14-12/14-12/14-12-----------|
b|----------------------12----12--|
g|-------------------------13-----|
D|--------------------------------|
A|--------------------------------|
E|--------------------------------|
        LA
e|-9/12-9/12-14-16--|
b|------------------|
g|------------------|
D|------------------|
A|------------------|
E|------------------|

     MI          RE          LA
e|-14-12-------12-10-------10-9------9-|
b|----------12----------10--------10---|
g|-------13----------11---------9------|
D|-------------------------------------|
A|-------------------------------------|
E|-------------------------------------|
   MI      LA
e|-7-----7-----|
b|-----9---10--|
g|---9---------|
D|-------------|
A|-------------|
E|-------------|


            LA               MI7
Mire que es lindo mi país paisano,
                             LA
si usted lo viera como yo lo vi,
                              MI7
un cielo limpio repartiendo estrellas,
          RE       MI7        LA
la madre tierra acunando el maìz.
            LA               MI7
Mire que es lindo mi país paisano,
         RE       MI7        LA
si usted lo viera como yo lo vi,


FINAL:

MI7 - LA

Pero fijese eh!
Suggest correction
Give kudos to tab author, rate the tab!
1 2 3 4 5
comments
print report bad tab
guest
You may want to rate the tab now too:
select rating
Wanna post a correction for this tab? Suggest correction