Oops, an error
Loading. Please wait.

Pájaro Errante Tab

18 views 1 this week
no commentswrite comment
1 2 3 4 5
3 more votes to show rating
add to favorites
launch autoscroll
font size
0
reset
how to read this tab
guitar tuner
Autoscroll
slow
fast
+/-
esc
set tempo
stop
Help us to improve Ultimate-Guitar.com Take our survey!
×
ACLARACIONES:
1. La introducción es tiempo de Vals (3/4).
2. No se preocupen por las letras que están sobre el pentagrama.
3. Atentos cuando sale (en el compás 5) la L es un ligado de
   prolongación de la nota que antecede.
4. Recuerden que esto es una guía para sacar el tema escuchando
   el disc.
5. Abajo están las aclaraciones
   para inerpretar
   los símbolos del tab.


      E  E   E  E  E  E     E  E  E  E  E  E      E  E  E   E  Q
E||----------------------|-----------------7--|----------------7----|
B||-------------------8--|-----7--8--7--------|--10--7--8--10--8----|
G||----------------9-----|--9-----------9-----|---------------------|
D||-------------9--------|--------------------|---------------------|
A||--10--9--10-----------|--------------------|---------------------|
E||----------------------|--------------------|---------------------|


   Q    E   Q    E     E   E  Q    E  E     E  E  E   E   E   E
--------7---8----7--|--L-----------------|-----------12--10------|
--10----8--10----8--|--L--10--8-------7--|--8--7-------------10--|
--11----------------|-----11--9----9-----|--------9--------------|
--------------------|--------------------|-----------------------|
--------------------|--------------------|-----------------------|
--------------------|--------------------|-----------------------|


   E   E   Q     Q        E   Q     Q     E      Q     E   E   E   E
----------12----10----|--10--12----10-----8--|---8--------------------|
--12--13--13----12----|--12--13----12----10--|--10--------12--13--15--|
----------------------|----------------------|--------14--------------|
----------------------|----------------------|------------------------|
----------------------|----------------------|------------------------|
----------------------|----------------------|------------------------|


   E   Q     E   Q        E   Q     E   Q        E   Q    E  Q
--12--15----14--14----|--12--12----10--10----|---8---8----7--7----|
------17----15--15----|--13--13----12--12----|--10--10----8--8----|
----------------------|----------------------|--------------------|
----------------------|----------------------|--------------------|
----------------------|----------------------|--------------------|
----------------------|----------------------|--------------------|


   S  S  E   E   E   E   E      E   E   E   E   E   E
----------------------------|--------------------------|
--12-12-12--15--13--12--13--|------12--13--12------12--|
----------------------------|--14--------------14------|
----------------------------|--------------------------|
----------------------------|--------------------------|
----------------------------|--------------------------|


   E   E   E   E   E   E      E   E   E   E   E   E
--------------------------|----------------------12--||
--------------------------|------------------12------||
--11--12--14--12--11------|--------------12----------||
----------------------14--|--14--13--14--------------||
--------------------------|--------------------------||
--------------------------|--------------------------||


Duration Legend
---------------
W - whole
H - half
Q - quarter
E - 8th
S - 16th
T - 32nd
X - 64th
. - note dotted
|-n-|  - n-tuplets


Tablature Legend
----------------
L - tied note
x - dead note
g - grace note
(n) - ghost note
> - accentuded note
NH - natural harmonic
AH - artificial harmonic
TH - tapped harmonic
SH - semi harmonic
PH - pitch harmonic
h - hammer on
p - pull off
b - bend
br - bendRelease
pb - preBend
pbr - preBendRelease
brb - bendReleaseBend
n/ - tremolo bar dip
n - tremolo bar dive
-/n - tremolo bar Release up
/n - tremolo bar inverted dip
/n - tremolo bar return
-n - tremolo bar Release down
S - shift slide
s - legato slide
/ -  slide into from below or out of upwards
 -  slide into from above or out of downwards
~ - vibrato
W - wide vibrato
tr - trill
TP - tremolo picking
T - tapping
S - slap
P - pop
< - fade in
^ - brush up
v - brush down
Suggest correction
Give kudos to tab author, rate the tab!
1 2 3 4 5
comments
print report bad tab
guest
You may want to rate the tab now too:
select rating
Wanna post a correction for this tab? Suggest correction