Oops, an error
Loading. Please wait.

Una Noche Más Chords

version 2
version 2

Whole song

7 views 1 this week
no commentswrite comment
1 2 3 4 5
3 more votes to show rating
add to favorites
launch autoscroll
font size
0
reset
transpose
0
reset
simplify chords
display chords
guitar tuner
×
Best way to learn
"Una Noche Más"
Autoscroll
slow
fast
+/-
esc
set tempo
stop
Holaaa!!! esta cancion sta geniallllllllllllllllll!!!
es una de las mejores de Jorge la netaaaaaaaaa!!! jaja
esta si va asi super dedicacion mil ocho mil jajajajajaja
esta se la quiero dedicar a Kitty, aun te amo... pfff!!!

Kitty si de casualidad ves esto
solo te pido... Una noche más...


Em B7

Em
Cuando pasará
G
que se crucen los caminos
Am
en cualquier lugar
B7                      C
tengo ganas de pasar contigo
Em
una noche más
G
solo espero ese momento
Am
para estar con vos

B7
es que tengo ganas
      G           D7
de volver a acariciar tu pelo,
Em            Bm
a embriagarme con tus besos,
C             B7
verte sonreír solo para mi

          G          D7
que sueño demorar las horas
       Em            Bm
cuando ya te duermas en mis brazos
C               B7
y en mi corazón

                        Em
Tengo ganas de volver a verte
             D
alguna noche de estas
         C                     B7
y que lo sepan solamente las estrellas
         Em
volver a verte,
               D
acariciarte el alma
          C                        B7
que no me dejes cuando llegue la mañana...

     Em                   D                   C
E||----------|---------|----------|---------|---------|---------|
B||--0-5-8-7-|-0-5-8-7-|--0-5-8-7-|-0-5-8-7-|-0-5-8-7-|-0-5-8-7-|
G||----------|---------|----------|---------|---------|---------|
D||----------|---------|----------|---------|---------|---------|
A||----------|---------|----------|---------|---------|---------|
E||----------|---------|----------|---------|---------|---------|

     B7                    Em                      D
E||--8-7-5--------------|-----------|-----------|-----------|-----------|
B||--------8-7-5-----0--|--0-5-8-7--|--0-5-8-7--|--0-5-8-7--|--0-5-8-7--|
G||--------------8-5----|-----------|-----------|-----------|-----------|
D||---------------------|-----------|-----------|-----------|-----------|
A||---------------------|-----------|-----------|-----------|-----------|
E||---------------------|-----------|-----------|-----------|-----------|

     C                    B7              Em   B7
E||----------|---------|--8-7-5--------------|-2-------|
B||--0-5-8-7-|-0-5-8-7-|--------8-7-5-----0--|--0------|
G||----------|---------|--------------8-5----|---2-----|
D||----------|---------|---------------------|----1----|
A||----------|---------|---------------------|-----2---|
E||----------|---------|---------------------|------0--|


Em
una noche más
G
solo espero ese momento
Am
para estar con vos

B7
es que tengo ganas
      G           D7
de volver a acariciar tu pelo,
Em            Bm
a embriagarme con tus besos,
C             B7
verte sonreír solo para mi

          G          D7
que sueño demorar las horas
       Em            Bm
cuando ya te duermas en mis brazos
C               B7
y en mi corazón

                        Em
Tengo ganas de volver a verte
             D
alguna noche de estas
         C                     B7
y que lo sepan solamente las estrellas
         Em
volver a verte,
               D
acariciarte el alma
          C                        B7
que no me dejes cuando llegue la mañana...

Em D C B7 Em D C B7

(Volver a verte)
          Em                                   D7
          Que sepas cuando el destino te ponga enfrente yo solo quiero
(volver a verte)
           Em                                   D7
           dejar en tu piel las huellas de esta locura y hasta el cansancio
(Volver a verte)
           Em                D7
                 y sentir de nuevo
(volver a verte)
           Em                                       D7
           tus besos, tu pelo, tu cuerpo... yo solo quiero...

         Em
volver a verte
             D
alguna noche de estas
         C                     B7
y que lo sepan solamente las estrellas
         Em
volver a verte,
               D
acariciarte el alma
          C                        B7
que no me dejes cuando llegue la mañana...

     Em                 B7 Em B7 Em
E||----------|---------|-----------|
B||--0-5-8-7-|-0-5-8-7-|-----------|
G||----------|---------|-----------|
D||----------|---------|-----------|
A||----------|---------|-----------|
E||----------|---------|-----------|
Suggest correction
Give kudos to tab author, rate the tab!
1 2 3 4 5
comments
print report bad tab
guest
You may want to rate the tab now too:
select rating
Wanna post a correction for this tab? Suggest correction