Oops, an error
Loading. Please wait.

Corriendo Libre Tab

26 views 1 this week
no commentswrite comment
1 2 3 4 5
3 more votes to show rating
add to favorites
launch autoscroll
font size
0
reset
how to read this tab
guitar tuner
Autoscroll
slow
fast
+/-
esc
set tempo
stop
Help us to improve Ultimate-Guitar.com Take our survey!
×
Corriendo libre
~

Primero empieza el bajo luego?-
e|---------------------------------------------------
B|------------------------------10-9-----------------
G|------2~----9---7--5/4-2-0-2~------11-9-<9>~-------
D|0//22-2~-------------(0)-(0)-----------------------
A|0//22-0~-0-0--0---0---------------------------------
E|0//22----------------------------------------------
P.M        . .  .   .    .  .
e|------------------------------------------------------------------
B|--------------------------10---9---7---5/7~---------------------
G|-----9---7---5-4-2-0-2~~----------------------9-7-5/4-2-0-2~-----
D|----------------(0)-(0)--------------------------------(0)-(0)---
A|-0-0---0---0--------------------------------00-0-0---------------
E|------------------------------------------------------------------
P.M?.     .    .                               .. . .       .   .
e|---------------------------------------------------------------
B|--------------------------10--9--7-5/7~-------------------------
G|-5/7-4/5-2p0~--------------------------------------------------
D|---------------------------------------------------------------
A|--------------------¿?-------------------------------------------
E|---------------------------------------------------------------
Esto es rapidisimo!!
   A
%e|17-12----------12-17-12----------12-17-12------|
%B|-----------------------------------------------|
%G|------14-13-14----------14-13-14----------14-13|
%D|-----------------------------------------------|
%A|-----------------------------------------------|
%E|-----------------------------------------------|
     E
e|17-12-----------12-17-12----------12-17-12-------%x2
B|-------------------------------------------------%
G|------14-13-14-----------14-13-14----------14-13-%
D|-------------------------------------------------%
A|-------------------------------------------------%
E|-------------------------------------------------%
                  Desde el % hasta el otro % se repeiten dos
                    veces osea se toca cuatro veces el primer compas
e|17-12----------12-17-12----------12-17-12------|
B|-----------------------------------------------|
G|------14-13-14----------14-13-14----------14-13|
D|-----------------------------------------------|
A|-----------------------------------------------|
E|-----------------------------------------------|

e|17-12----------12-17-12----------12-17-12-----------|
B|----------------------------------------------------|
G|------16-12-16----------16-12-16-----------16-12----|
D|----------------------------------------------------|
A|----------------------------------------------------|
E|----------------------------------------------------|


e|17-12---------12-17-12----------12-17-12---------|
B|-----15-14-15----------15-14-15----------15-14---|
G|-------------------------------------------------|
D|-------------------------------------------------|
A|-------------------------------------------------|
E|-------------------------------------------------|

e|17-12----------12-17-12----------12-17-12---------------
B|------15-14-15----------15-14-15----------15-14---------
G|--------------------------------------------------------
D|--------------------------------------------------------
A|-----------------------------------------------------
E|------------------------------------------------------
  (0:49)    t
e|-----------------------------------------------|
B|-10~-9-10-17-------------------------------------------|
G|-----------------------------------------------|
D|---------------¿?--------------------------------|
A|-----------------------------------------------|
E|-----------------------------------------------|
 (1:19)
e|-----------------------------------------------
B|-/18-18-17/15-13-/20-18-17~--------------------
G|-----------------------------------------------
D|-----------------------------------------------
A|-----------------------------------------------
E|-----------------------------------------------

e|--------------------------------------------------
B|-/18-18-17-15-13/15----------/18-18-17/15-13-¿?-----
G|--------------------12-<12>~-----------------------
D|---------------------------------------------------
A|---------------------------------------------------
E|--------------------------------------------------


e|-------------------------------------
B|-/17-18/21-18-17-17~-19~-20~---------
G|-----------------19~-21~-22~---------
D|-------------------------------------
A|-------------------------------------
E|-------------------------------------

e|------------|--------------|--------------------
B|------------|--------------|--------------------
G|7--77--5-77-|-7-7-10-7-7-7-|-7-7-5-7~x----------
D|7--77--3-77-|-7-7-10-7-7-7-|-7-7-5-7~x----------
A|5--55--3-55-|-5-5--8-5-5-5-|-5-5-3-5~x----------
E|------------|--------------|---------^----------
                                      Esto es un armonico
                                                       con LA
                                      mano derecha

P.M.= ..palm muting
/=slide
~=vibracion
()=nota fantasma (si la quieres o no tocar)


Le mando saludos a mis amigos de la prepa 13 en gdl y
saludos ami primo Charls esta cancion la envie
el dia de su santo


ø¤ø­»¤§
Suggest correction
Give kudos to tab author, rate the tab!
1 2 3 4 5
comments
print report bad tab
guest
You may want to rate the tab now too:
select rating
Wanna post a correction for this tab? Suggest correction