Oops, an error
Loading. Please wait.

Subsuelo Tab

37 views 1 this week
no commentswrite comment
1 2 3 4 5
3 more votes to show rating
add to favorites
launch autoscroll
font size
0
reset
how to read this tab
guitar tuner
Autoscroll
slow
fast
+/-
esc
set tempo
stop
Help us to improve Ultimate-Guitar.com Take our survey!
×
 ~ = vibrar
 / = slide


           Em
e|------------------------------------------------------------------
B|----0-------------------------------------------------------------
G|------0-------0--0-------------2~---------------------------------
D|------------2------2--0-2-4-5-----2~--0-2/5-0-2/5-0-2/5-----------
A|----------2-------------------------------------------------------
E|--0-----0---------------------------------------------------------

            Em                         G
e|------------------------------------------------------------------
B|---0------------------------0-------------------------------------
G|-----0-------0--0-------------0-----------------3~----------------
D|-----------2------2----2-----------------0----0-------------------
A|---------2-----------2-----------------2----0---------------------
E|-0-----0-----------------0---------0-3----------------------------


            Em                         G
e|-------------------------------------------0----------------------
B|---0------------------------0----------------0--------------------
G|-----0-------0--0-------------0----------0-----0------------------
D|-----------2------2----2---------------0---------0----------------
A|---------2-----------2---------------2----------------------------
E|-0-----0-----------------0-------0-3----------------------------

e|------------------------------------------------------------------
B|-----------0------------------------------------------------------
G|-------------2----------------2~-----10/12-10------7--------------
D|---0/2~--------2--2--0-2-4-5-----2~------------7-9---9-7-5--------
A|-3------0---------------------------------------------------------
E|------------------------------------------------------------------


e|--------------------------------
B|--------------------------------
G|----------------3~------------------------------3~--------------
D|-------0----0--------------------------0----0-------------------
A|-----2----0--------------------------2----0---------------------
E|-0-3-----------------------------0-3----------------------------

    G#
e|------------------------------------------------------------------
B|-------4----------------4-----------------------------------------
G|---------5----------------5---------------------------------------
D|-----6-----6----6-----6-----6-------------------------------------
A|---6----------6-----6---------------------------------------------
E|-4----------------4-----------------------------------------------


e|--10-8-7----------------------------------------------------------
B|--------10-8-7----------------------------------------------------
G|---------------10-8-7---------------------------------------------
D|---------------------10-8-7---------------------------------------
A|----------------------------7-------------------------------------
E|------------------------------------------------------------------
Suggest correction
Give kudos to tab author, rate the tab!
1 2 3 4 5
comments
print report bad tab
guest
You may want to rate the tab now too:
select rating
Wanna post a correction for this tab? Suggest correction