Oops, an error
Loading. Please wait.

La China Que Yo Tenía Tab

308 views 3 this week
no commentswrite comment
1 2 3 4 5
3 more votes to show rating
add to favorites
launch autoscroll
font size
0
reset
how to read this tab
guitar tuner
Autoscroll
slow
fast
+/-
esc
set tempo
stop
Aquí les traigo otro tema del maestro Velosa para que lo disfruten
Esta canción se toca en ritmo de merengue carranguero


  F                                      C7
e-8--8--10-8--8--8--10-8--8--10-10-8--8--6-
B-10-10-11-10-10-10-11-10-10-11-11-10-10-8-
G------------------------------------------
D------------------------------------------
A------------------------------------------
E------------------------------------------

                             F
e--6-6-8--6-6-6-8--6-6-8--8--5--
B--8-8-10-8-8-8-10-8-8-10-10-6--
G-------------------------------
D-------------------------------
A-------------------------------
E-------------------------------

   F            C7             F
e-/----5---------------5-5-------------/
B-/4-4---8-6---8-8-8-8-----8-8-6-------/ X4
G-/------------------------------5-----/
D--------------------------------------
A--------------------------------------
E--------------------------------------


  F                                        C7
//La china que yo tenia se fue pa' la capital
                                           F
de nada valió quererla pues no quiso regresar//
  F                   C7                         F
//se fue a pasar unos días disque donde un familiar
                    C7                      F
pero también a mi china se la trago la ciudad//


  F                                     C7
//La vi por ultima vez la noche de navidad
                                           F
me dijo que el veintisiete se iba para Bogotá//
  F                  C7                       F
//Pensé yo pa' mis adentros esa no va a regresar
                     C7                          F
eso es lo que pasa siempre con todas las que se van//


  F                                          C7
//Dejo la vaca y el burro la vereda y el maizal
                                            F
dejo también mi cariño por quedarse en Bogotá//
  F                     C7                        F
//Me imagino yo a mi china lo mucho que ira a cambiar
                        C7                        F
porque también yo lo he visto cuando vuelve por acá//

  F                                               C7
//Se pinta de arriba a abajo y se pone no se que mas
                                               F
cambiando de caminao' y hasta la forma de hablar//
  F                    C7                     F
//Me imagino yo a mi china preguntando que será
                 C7                   F
eso que llaman arepa mazamorra y rebancá//


COMO SIEMPRE CUALQUIER APORTE O SUGERENCIA
AL CORREO carranguero99music@
Suggest correction
Give kudos to tab author, rate the tab!
1 2 3 4 5
comments
print report bad tab
guest
Wanna post a correction for this tab? Suggest correction