Oops, an error
Loading. Please wait.

Mi Gran Amor Te Dí Tab

239 views 3 this week
no commentswrite comment
1 2 3 4 5
2 more votes to show rating
add to favorites
launch autoscroll
font size
0
reset
how to read this tab
guitar tuner
×
Best way to learn
"Mi Gran Amor Te Dí"
Autoscroll
slow
fast
+/-
esc
set tempo
stop
subo este TAB por que (igual que todos los que subo) me canse de
buscarlo en todo el internet, no lo encontre y me lo tube que sacar.
ademas me parece una cancionsota de los beatles (And, I love her)
y su traduccion mucho mejor por parte de 'el canario'.


1:riff 
5:----6-5-3--------------|
6:--6--------------------|

intro 1-f#m 1-e x2  

F#m        C#m    
  Mi gran amor le di
F#m        C#m    
  tan sólo eso
F#m        C#m    
  y el alma le ofrecí
A           B7
  junto a mis besos
E   
  te amare. 
  
*Tu gran amor sentí
muy tiernamente
sus besos devolví
muy dulcemente
te amare. 
  
coro:
G#m      C#m
 Un gran amor
G#m      C#m
 como mi amor
G#m      C#m
 ha de pasar
        B
 a la eternidad. 
  
Y las estrellas son 
resplandecientes
que guiarán mi amor
eternamente
te amare.* solo (*bis) 
  
solo:

1-----------------------------------------------------|
2-----------------------------------------------------|
3-------9-7-9/10--10-9-7---------9-7-9/10--7-7-5-5----|
4-5-7-8-------------------5-7-8--------------------7-5|
5-----------------------------------------------------|
6-----------------------------------------------------|

1-----------------------------------------------------|
2-----------------------------------------------------|
3-------9-7-9/10---10-7-------------------------------|
4-5-7-8-----------------8-7/5------0-5/7--------------|
5------------------------------3-3---------3-3--------|
6----------------------------------------------5-3-1-0|

SUGERENCIAS O PARA USAR ESTA ROLA EN OTRA PAGINA. 
A JAAC000@ O JAAC000@
Suggest correction
Give kudos to tab author, rate the tab!
1 2 3 4 5
comments
print report bad tab
guest
You may want to rate the tab now too:
select rating
Wanna post a correction for this tab? Suggest correction