Oops, an error
Loading. Please wait.
14 views 1 this week
no commentswrite comment
1 2 3 4 5
3 more votes to show rating
add to favorites
launch autoscroll
font size
0
reset
how to read this tab
guitar tuner
×
Best way to learn
"Te Perdí"
Autoscroll
slow
fast
+/-
esc
set tempo
stop
Esta es una tablatura que saque como hace 3 meses y que
no la habia publicado porque me daba lata. saludo a los 
que me conocen.


Te Perdí

        'Pollo' Fuentes


E||-9-11-12-11/9-12-12-14-12-11/12/12-10/11-10-8------||
B||---------------------------------------------------||
G||---------------------------------------------------||
D||---------------------------------------------------||
A||---------------------------------------------------||
E||---------------------------------------------------||

E||-7-7-7-6-7-9-7-6-6---------------------------------||
B||-----------------6---------------------------------||
G||-----------------7---------------------------------||
D||-----------------8---------------------------------||
A||-----------------8---------------------------------||
E||-----------------6---------------------------------||


Saludos Espero les sirva
Suggest correction
Give kudos to tab author, rate the tab!
1 2 3 4 5
comments
print report bad tab
guest
You may want to rate the tab now too:
select rating
Wanna post a correction for this tab? Suggest correction