Oops, an error
Loading. Please wait.

No Volveré Tab

version 2
version 2

Whole song

46 views 1 this week
no commentswrite comment
1 2 3 4 5
3 more votes to show rating
add to favorites
launch autoscroll
font size
0
reset
how to read this tab
guitar tuner
Autoscroll
slow
fast
+/-
esc
set tempo
stop
Help us to improve Ultimate-Guitar.com Take our survey!
×
Intro: 00.00
  A                                   E
|---0-0---0-0---0-0---0-0---0-0---------0-0---0-0---0-0---|
|---2-2---2-2---2-2---2-2---2-2---------0-0---0-0---0-0---|
|---2-2---2-2---2-2---2-2---2-2---------1-1---1-1---1-1---|
|---2-2---2-2---2-2---2-2---2-2-----1---2-2---2-2---2-2---|
|-0-----------0-----------0-----2-4---------2-------------|
|-------0-----------0-----------------0-----------0-------|

        B                                   E
|---0-----2-2---2-2---2-2---2-2---------------0-0---0-0---|
|---0-----4-4---4-4---4-4---4-4---------------0-0---0-0---|
|---1-----4-4---4-4---4-4---4-4---------------1-1---1-1---|
|---2-----4-4---4-4---4-4---4-4---------------2-2---2-2---|
|-------------2-----------2-------4-2-0-----------2-------|
|-4---3-2-----------2-----------0-------4-2-0-------------|

1er. Verso 00.20
       Cuando lejos te encuentres de mí      cuando quieras
  E
|---0-0---0-0-----0----0-----0-0-------0--0----0-0---0-0--|
|---0-0---0-0-----0----0-----0-0-------0--0----0-0---0-0--|
|---1-1---1-1-----1----1-----1-1-------1--1----1-1---1-1--|
|---2-2---2-2-----2----2-----2-2-------2--2----2-2---2-2--|
|-------2------------------2-----------------2------------|
|-0-----------0----------------------0-------------0------|

 Que esté yo contigo  no hallarás un recuerdo de mí
        E/G#   B               A                 E
|---------0------2-2---2-2-------0-0---------------0-0----|
|---------0------4-4---4-4-------2-2---------------0-0----|
|---------1------4-4---4-4-------2-2---------------1-1----|
|---------2------4-4---4-4-------2-2---------1-----2-2----|
|--------------------2---------0-------2--4---------------|
|-------4----3-2---------------------------------0--------|

    ni tendrás más amores conmigo.
  E/G#     B                              E
|---0----------2---2---2-2---------------------0--0-------|
|---0----------4---4---4-4---------------------0--0-------|
|---1----------4---4---4-4---------------------1--1-------|
|---2----------4---4---4-4---------------------2--2-------|
|--------------------2----------4-2-0-----------------2---|
|-4-----3--2------------------0-------4-2-0---------------|

2do. Verso 00.38
  Yo te juro que no volveré      aunque me haga pedazos

|-0-0---0-0---0-0----0-0-----0--0------0---0--------------|
|-0-0---0-0---0-0----0-0-----0--0------0---0--------------|
|-1-1---1-1---1-1----1-1-----1--1------1---1--------------|
|-2-2---2-2---2-2----2-2-----2--2------2---2--------------|
|-----------2-------------2-------------------------------|
|-----0------------0---------------0------------0--2--4---|

  LA vida     SI una vez con locura te amé         ya
   A                                             E         E/G#
|---0---0----0-0-------0-0-----------------0-0-----0------|
|---2---2----2-2-------2-2-----------------0-0-----0------|
|---2---2----2-2-------2-2-----------------1-1-----1------|
|---2---2----2-2-------2-2-----------1-----2-2-----2------|
|-0------------------2---------2--4-----------------------|
|----------0-----------------------------0-------4--------|

   de mi alma estarás despedida.

|-----------2--2---2-2------------------------------------|
|-----------4--4---4-4------------------------------------|
|-----------4--4---4-4------------------------------------|
|-----------4--4---4-4--------------------2-1-0-----------|
|----------------2-----------4-2-0--------------4-2-------|
|---3---2------------------0-------4-2-0------------------|

  No_______volveré_____  te lo juro por dios que me mira
  A                                                 E
|---0-0---0-0-----0-0---0-0-------0--0----0-0---------0-0-|
|---2-2---2-2-----2-2---2-2-------2--2----2-2---------0-0-|
|---2-2---2-2-----2-2---2-2-------2--2----2-2---------1-1-|
|---2-2---2-2-----2-2---2-2-------2--2----2-2-----1---2-2-|
|-0-------------0--------------0--------------2-4---------|
|-------0-------------0-----------------0-----------0-----|

     te lo digo llorando de rabia         no  vol_ve__ré.
                             B            B/A B/G# B/F#  E
|---0-0------0---0-----0-------2-2---2-2----2---2---2-----|
|---0-0------0---0-----0-------4-4---4-4----4---4---4-----|
|---1-1------1---1-----1-------4-4---4-4----4---4---4-----|
|---2-2------2---2-----2-------4-4---4-4----4---4---4-----|
|-2--------------------------------2------0---------------|
|----------0--------4----3---2----------------4---2---0---|

            No______pararé____    hasta ver que mi llanto
            A
|-0-0---------0-0---0-0-----0-0---0-0--------0--0---------|
|-0-0---------2-2---2-2-----2-2---2-2--------2--2---------|
|-1-1---------2-2---2-2-----2-2---2-2--------2--2---------|
|-2-2---------2-2---2-2-----2-2---2-2--------2--2---------|
|-----------0-------------0--------------0-----------2--4-|
|-----0-2-4-------0-------------0-------------------------|

 ha formado    un arroyo de olvido ha negado     donde yo
       E                      E/G#      B
|--------0-0---0-0----0-0--------0---------2-2---2-2------|
|--------0-0---0-0----0-0--------0---------4-4---4-4------|
|--------1-1---1-1----1-1--------1---------4-4---4-4------|
|---1----2-2---2-2----2-2--------2---------4-4---4-4------|
|------------2---------------------------------2----------|
|------0------------0---------4-------3-2--------------2--|

  tu recuerdo ahogaré
                        E       A  (igual A intro)
|-2-2-----------------0-0---------------------------------|
|-4-4-----------------0-0---------------------------------|
|-4-4-----------------1-1---------------------------------|
|-4-4------------1----2-2---------------------------------|
|-------2--4--------------------0-------------------------|
|-------------------0-----0-2-4---------------------------|

Igual que Versos 1 y 2:

Fuimos nubes que el viento apartó. Fuimos piedras que
siempre chocamos. Gotas de agua que el sol resecó.
Borracheras que no terminamos.  En el tren de la ausencia
me voy mi boleto no tiene regreso. Lo que tengas de mí te
lo doy pero yo te devuelvo tus besos.

No volveré, te lo juro por dios que me mira.
Te lo digo llorando de rabia no volveré.
No pararé, hasta ver que mi llanto ha formado.
Un arroyo de olvido ha negado donde yo tu recuerdo

Outro:
Ahogaré_________________________________
                       B  E
|----------------------2--0-------------------------------|
|----------------------4--0-------------------------------|
|----------------------4--1-------------------------------|
|----------------------4--2-------------------------------|
|--------4-2-0---------2--2-------------------------------|
|------0-------4-2--0-----0-------------------------------|
Suggest correction
Give kudos to tab author, rate the tab!
1 2 3 4 5
comments
print report bad tab
guest
You may want to rate the tab now too:
select rating
Wanna post a correction for this tab? Suggest correction