Oops, an error
Loading. Please wait.

Aquí Estoy Bass Tab

20 views 1 this week
no commentswrite comment
1 2 3 4 5
3 more votes to show rating
add to favorites
launch autoscroll
font size
0
reset
guitar tuner
×
Best way to learn
"Aquí Estoy"
Autoscroll
slow
fast
+/-
esc
set tempo
stop
Ahi les va esta cancion
no es el tipo de musica que me gusta
pero ojo que todas las que transcribo
me encantan
las de este tipo en especial se las dedico a andrea
ella me las hizo escchar

Intro
E|-------|------|------|--------|
A|--0-00-|-0-00-|-0-00-|--------|
D|-------|------|------|--------|
G|-------|------|------|-12-14--|

E|-------|------|------|-3-----|
A|--0-00-|-0-00-|-0-00-|---00--|x2
D|-------|------|------|-------|
G|-------|------|------|-------|

He viajado
E|-------|------|------|-3-33--|
A|--0-00-|-0-00-|-0-00-|-------|x3
D|-------|------|------|-------|
G|-------|------|------|-------|

...con que arroparme
E|-------|------|-------|-3--|
A|--0-00-|-0-00-|-0-000-|----|
D|-------|------|-------|----|
G|-------|------|-------|----|

  cuando cae
E|----|-33-|---|------------|
A|--3-|----|-5-|-550-0/3/5--|
D|----|----|---|------------|
G|----|----|---|------------|

No logro encontrar
E|----|-33-|----|------------|
A|--3-|----|-55-|-3h55-3h55--|
D|----|----|----|------------|
G|----|----|----|------------|

El camino
E|----|-33-|---|---|-3-|----|
A|--3-|----|-5-|-3-|---|-5--|
D|----|----|---|---|---|----|
G|----|----|---|---|---|----|

Yo estoy
E|--------|-1(8)--|
A|--0(24)-|-------|x2
D|--------|-------|
G|--------|-------|

Olvide
E|-------|------|------|-3-33--|
A|--0-00-|-0-00-|-0-00-|-------|x3
D|-------|------|------|-------|
G|-------|------|------|-------|

...que eran estrellas
E|-------|------|------|--3--|
A|--0-00-|-0-00-|-0-00-|-0---|
D|-------|------|------|-----|
G|-------|------|------|-----|

  cuando cae
E|----|-33-|---|------------|
A|--3-|----|-5-|-550-0/3/5--|
D|----|----|---|------------|
G|----|----|---|------------|

No logro encontrar
E|----|-33-|----|------------|
A|--3-|----|-55-|-3h55-3h55--|
D|----|----|----|------------|
G|----|----|----|------------|

El camino
E|----|-33-|---|---|-3-|----|
A|--3-|----|-5-|-3-|---|-5--|
D|----|----|---|---|---|----|
G|----|----|---|---|---|----|

Yo estoy
E|--------|-1(8)--|
A|--0(24)-|-------|
D|--------|-------|
G|--------|-------|

Yo estoy
E|--------|-----1--|
A|--0(24)-|--------|
D|--------|-5-0----|
G|--------|--------|

el solo
E|---------|-1-3-|--------|-3-1-|
A|--00-000-|-----|-00-000-|-----|x4
D|---------|-----|--------|-----|
G|---------|-----|--------|-----|

  cuando cae
E|----|-33-|---|------------|
A|--3-|----|-5-|-550-0/3/5--|
D|----|----|---|------------|
G|----|----|---|------------|

No logro encontrar
E|----|-33-|----|------------|
A|--3-|----|-55-|-3h55-3h55--|
D|----|----|----|------------|
G|----|----|----|------------|

El camino
E|----|-33-|---|---|-3-|----|
A|--3-|----|-5-|-3-|---|-5--|
D|----|----|---|---|---|----|
G|----|----|---|---|---|----|

Yo estoy
E|--------|-1(8)--|
A|--0(24)-|-------|x5
D|--------|-------|
G|--------|-------|

con ese ultimo acaba

 gatolar
Suggest correction
Give kudos to tab author, rate the tab!
1 2 3 4 5
comments
print report bad tab
guest
You may want to rate the tab now too:
select rating
Wanna post a correction for this tab? Suggest correction