Oops, an error
Loading. Please wait.

El Precio Tab

47 views 1 this week
no commentswrite comment
1 2 3 4 5
3 more votes to show rating
add to favorites
launch autoscroll
font size
0
reset
how to read this tab
guitar tuner
×
Best way to learn
"El Precio"
Autoscroll
slow
fast
+/-
esc
set tempo
stop
Los números encima de las tablaturas indican más o menos la
posición de la guitarra rítmica con respecto a la solista,para
que no sea muy lioso.
El final del solo está bastante incompleto, la parte de los picados
porque es difícil de sacar, pero más o menos indica la zona donde
tocarlos.


Acordes:
 F5(a)  C5  D5 A#5  F5(b)
----------------------------------------------------------------
----------------------------------------------------------------
--------5---7---3----10-----------------------------------------
--3-----5---7---3----10-----------------------------------------
--3-----3---5---1----8------------------------------------------
--1-------------------------------------------------------------


GR: Guitarra rítmica
GS: Guitarra solista


Introducción de GR:
-------1s3s1----------------0-----1s3-----10---1-1---0-----
-----1-1s3s1-----1------------1---1s3-----8----1---1-1-1---
-0h2---------0h2----------2-0---0-------2------3-----3-----
------------------------3-------------0--------3-----3-----
----------------------3----------------------3-------------
--------------------1--------------------------------------

-0h1p0-----0-----------------------------------------------
-3-----3-----3---------------------------------------------
---------2-------------------------------------------------
-0---------------------------------------------------------
-----------------------------------------------------------
-----------------------------------------------------------


Solo inicial de GS:
1                           2
-17-15-13-15p13----13--------17-15-20-18-17-15h17p15-------
----------------17----17p15--------------------------18p17-
-----------------------------------------------------------
-----------------------------------------------------------
-----------------------------------------------------------
-----------------------------------------------------------
                   3                                   4
-----------------------------------------------------------
-18-18-17--------------------------------------------------
----------19-17-17h19-17-------------17s19-----------------
-------------------------17h19p17-15-------15----15--------
----------------------------------------------19----19-17--
-----------------------------------------------------------

-----------------------------------------------------------
-----------------------------------------------------------
-----------------------------------------------------------
-----------------------------------------------------------
-15--------------------------------------------------------
----15-15-13-8h10------------------------------------------


GR mientras suena GS:
1                                         2
---------------------------3p1-1-0-0-----------------------
--------------3-1------3-------------1s3--------------3-1--
-----2-0-------------2---2--------------------2-0----------
---0--------2------0------------------------0-------2------
-1--------3-------------------------------1-------3--------
-----------------------------------------------------------


                          3
---------3s5-----------------------------------------------
-----3-------3-5-6-5-3----------------3-1-----3-----1---1--
---2---2---------------5------2-0-----------2---2-0---0----
-0--------------------------0-------2-----0----------------
--------------------------1-------3------------------------
-----------------------------------------------------------
         4
-----1-0-----------------------------3p1---0-1-0-----------
-1h3-----------------3-1-----3-----1-------------3---------
-------------2-0-----------2---2-0-------0-----------------
-----------0-------2-----0---------------------------------
---------1-------3-----------------------------------------
-----------------------------------------------------------

-----------------------------------------------------------
-----------------------------------------------------------
-----------------------------------------------------------
-----------------------------------------------------------
-----------------------------------------------------------
-----------------------------------------------------------


Sé bien que algún día
-------------------------3p1-1-0-0-------------------------
-------------3-1-----3-------------3-----------------------
-----2-0-----------2---2-----------------------------------
---0-------2-----0-----------------------------------------
-1-------3-------------------------------------------------
-----------------------------------------------------------

MI tormenta escampará
-------------------------3p1-1-0-0-------------------------
-------------3-1-----3-------------3-----------------------
-----2-0-----------2---2-----------------------------------
---0-------2-----0-----------------------------------------
-1-------3-------------------------------------------------
-----------------------------------------------------------

Espero mi vida
-------------------------3p1-1-0-0-------------------------
-------------3-1-----3-------------3-----------------------
-----2-0-----------2---2-----------------------------------
---0-------2-----0-----------------------------------------
-1-------3-------------------------------------------------
-----------------------------------------------------------

Que en mi deje de nevar
-----------------------------------------------------------
-------------3-1-----3-------------------------------------
-----2-0-----------2---2-----------------------------------
---0-------2-----0-----------------------------------------
-1-------3-------------------------------------------------
-----------------------------------------------------------

GR y GS:
             F5(a) C5 C5       D5
-15--------------------------------------------------------
----15----15-----------------------------------------------
-------15--------------------------------------------------
-----------------------------------------------------------
-----------------------------------------------------------
-----------------------------------------------------------
               Tengo tanto que dar

          A#5          F5            D5/F5(b)/D5
-12h13p12--------------------------------------------------
-----------------------------------------------------------
-----------------------------------------------------------
-----------------------------------------------------------
-----------------------------------------------------------
-----------------------------------------------------------
     Pero mis demonios no me quieren dejar

       F5(a)        C5         F5(a)             C5
-----------------------------------------------------------
-----------------------------------------------------------
-----------------------------------------------------------
-----------------------------------------------------------
-----------------------------------------------------------
-----------------------------------------------------------
 Intentaré si he de caer incorporarme cien veces cien

          F5(a)          C5              D5
-----------------------------------------------------------
-----------------------------------------------------------
-----------------------------------------------------------
-----------------------------------------------------------
-----------------------------------------------------------
-----------------------------------------------------------
 Sin importarme el precio que haya que pagar

        F5(a)         C5             F5(a)        C5
-----------------------------------------------------------
-----------------------------------------------------------
-----------------------------------------------------------
-----------------------------------------------------------
-----------------------------------------------------------
-----------------------------------------------------------
Juro que no habrá amanecer en el que no luche por ser

         F5(a)         C5          D5
-----------------------------------------------------------
-----------------------------------------------------------
-----------------------------------------------------------
-----------------------------------------------------------
-----------------------------------------------------------
-----------------------------------------------------------
Libre al fin y no deje nunca de crecer


GR:

El miedo me corteja
-------------------------3p1-1-0---------------------------
-------------3-1-----3-----------1-------------------------
-----2-0-----------2---2-----------2-----------------------
---0-------2-----0-----------------------------------------
-1-------3-------------------------------------------------
-----------------------------------------------------------

Bailan mis dudas con mi mal
-------------------------3p1-1-0---------------------------
-------------3-1-----3-----------1-------------------------
-----2-0-----------2---2-----------2-----------------------
---0-------2-----0-----------------------------------------
-1-------3-------------------------------------------------
-----------------------------------------------------------

El fracaso me aconseja
-------------------------3p1-1-0---------------------------
-------------3-1-----3----------1--------------------------
-----2-0-----------2---2----------2------------------------
---0-------2-----0-----------------------------------------
-1-------3-------------------------------------------------
-----------------------------------------------------------

Que no cante victoria hasta el final
-------------------------3p1-1-0---------------------------
-------------3-1-----3-----------1-------------------------
-----2-0-----------2---2-----------2-----------------------
---0-------2-----0-----------------------------------------
-1-------3-------------------------------------------------
-----------------------------------------------------------


GR y GS:
F5(a) C5 C5      D5
-----------------------------------------------------------
-----------------------------------------------------------
-----------------------------------------------------------
-----------------------------------------------------------
-----------------------------------------------------------
-----------------------------------------------------------
Perdí mi libertad

      A#5              F5(a) C5         D5/F5(b)/D5
-----------------------------------------------------------
-----------------------------------------------------------
-----------------------------------------------------------
-----------------------------------------------------------
-----------------------------------------------------------
-----------------------------------------------------------
Por creer que el mundo terminaba en mis pies

     F5(a)            C5         F5(a)                C5
-----------------------------------------------------------
-----------------------------------------------------------
-----------------------------------------------------------
-----------------------------------------------------------
-----------------------------------------------------------
-----------------------------------------------------------
Abrázame, no me dejes caer, arrópame con la fuerza de ver

 F5(a)          C5              D5
-----------------------------------------------------------
-----------------------------------------------------------
-----------------------------------------------------------
-----------------------------------------------------------
-----------------------------------------------------------
-----------------------------------------------------------
Que mañana el sol saldrá para mi también

     F5(a)       C5            F5(a)      C5
-----------------------------------------------------------
-----------------------------------------------------------
-----------------------------------------------------------
-----------------------------------------------------------
-----------------------------------------------------------
-----------------------------------------------------------
Ayúdame, dame tu luz, comparte conmigo mi cruz

         F5(a)           C5             D5
-----------------------------------------------------------
-----------------------------------------------------------
-----------------------------------------------------------
-----------------------------------------------------------
-----------------------------------------------------------
-----------------------------------------------------------
Préstame constancia a mi niña, préstame paz

GS:
1                                       2
-----------------------------------------------------------
-------------10-------------------------------------10-----
-------10h12----12p10-12-13p12-13p12----------10h12----12p-
-10h12-------------------------------12-10h12--------------
-----------------------------------------------------------
-----------------------------------------------------------
                           3
-------------10-10-10--------------------------------------
-------13-10----------13-13-11-11-10----------10-----------
-10-12----------------------------------10-12----10----10--
-------------------------------------12-------------12-----
-----------------------------------------------------------
-----------------------------------------------------------
                                             4
-----------------------------------------------------------
----10-----------------------------------------------------
-12----10-10-----------------------------------------------
-------------12-10----12-10----------------10--------------
-------------------12-------12p10-------12----10----10-----
----------------------------------13-12----------13----13--
                                     F5(a)           C5
--------------------------------10----15h17p15-------------
--------------------13----10-13----------------18-17-15----
-----------------------12----------------------------------
--------10-12-12p10-------------------------------------17-
-----12----------------------------------------------------
-10--------------------------------------------------------
    C5                                         C5/A#5
-----------------------------------------------------------
----15-15--------------------------------------13-13h15-13-
-17-------14-17-17-14-17-17-14-17-17-14--------------------
----------------------------------------17-15--------------
-----------------------------------------------------------
-----------------------------------------------------------
             C5                               D5/F5(b)/D5
----13-15-13----------13-15-13-----------------------------
-13----------15-13----------------13-----------------------
-------------------15----------15----15-13-----------------
-------------------------------------------15--------------
-----------------------------------------------------------
-----------------------------------------------------------


GR mientras suena GS:
1                                         2
---------------------------3p1-1-0-0-----------------------
--------------3-1------3-------------1s3--------------3-1--
-----2-0-------------2---2--------------------2-0----------
---0--------2------0------------------------0-------2------
-1--------3-------------------------------1-------3--------
-----------------------------------------------------------
                          3
---------3s5-----------------------------------------------
-----3-------3-5-6-5-3----------------3-1-----3-----1---1--
---2---2---------------5------2-0-----------2---2-0---0----
-0--------------------------0-------2-----0----------------
--------------------------1-------3------------------------
-----------------------------------------------------------
         4
-----1-0-----------------------------3p1---0-1-0-----------
-1h3-----------------3-1-----3-----1-------------3---------
-------------2-0-----------2---2-0-------0-----------------
-----------0-------2-----0---------------------------------
---------1-------3-----------------------------------------
-----------------------------------------------------------


F5           C5         F5                C5
-----------------------------------------------------------
-----------------------------------------------------------
-----------------------------------------------------------
-----------------------------------------------------------
-----------------------------------------------------------
-----------------------------------------------------------
 Intentaré si he de caer incorporarme cien veces cien

          F5(a)             C5              D5
-----------------------------------------------------------
-----------------------------------------------------------
-----------------------------------------------------------
-----------------------------------------------------------
-----------------------------------------------------------
-----------------------------------------------------------
 Sin importarme el precio que haya que pagar

        F5(a)       C5             F5(a)        C5
-----------------------------------------------------------
-----------------------------------------------------------
-----------------------------------------------------------
-----------------------------------------------------------
-----------------------------------------------------------
-----------------------------------------------------------
Juro que no habrá amanecer en el que no luche por ser

         F5(a)         C5          D5
-----------------------------------------------------------
-----------------------------------------------------------
-----------------------------------------------------------
-----------------------------------------------------------
-----------------------------------------------------------
-----------------------------------------------------------
Libre al fin y no deje nunca de crecer

     F5(a)            C5         F5(a)                C5
-----------------------------------------------------------
-----------------------------------------------------------
-----------------------------------------------------------
-----------------------------------------------------------
-----------------------------------------------------------
-----------------------------------------------------------
Abrázame, no me dejes caer, arrópame con la fuerza de ver

 F5(a)          C5              D5
-----------------------------------------------------------
-----------------------------------------------------------
-----------------------------------------------------------
-----------------------------------------------------------
-----------------------------------------------------------
-----------------------------------------------------------
Que mañana el sol saldrá para mí también

     F5(a)       C5            F5(a)      C5
-----------------------------------------------------------
-----------------------------------------------------------
-----------------------------------------------------------
-----------------------------------------------------------
-----------------------------------------------------------
-----------------------------------------------------------
Ayúdame, dame tu luz, comparte conmigo mi cruz

         F5(a)           C5             D5
-----------------------------------------------------------
-----------------------------------------------------------
-----------------------------------------------------------
-----------------------------------------------------------
-----------------------------------------------------------
-----------------------------------------------------------
Préstame constancia a mi niña, préstame paz

F5(a)        C5         F5 (A)             C5
-----------------------------------------------------------
-----------------------------------------------------------
-----------------------------------------------------------
-----------------------------------------------------------
-----------------------------------------------------------
-----------------------------------------------------------
Intentaré si he de caer incorporarme cien veces cien


          F5(a)          C5              D5
-----------------------------------------------------------
-----------------------------------------------------------
-----------------------------------------------------------
-----------------------------------------------------------
-----------------------------------------------------------
-----------------------------------------------------------
 Sin importarme el precio que haya que pagar
Suggest correction
Give kudos to tab author, rate the tab!
1 2 3 4 5
comments
print report bad tab
guest
You may want to rate the tab now too:
select rating
Wanna post a correction for this tab? Suggest correction