Oops, an error
Loading. Please wait.

El Precio Bass Tab

8 views 1 this week
no commentswrite comment
1 2 3 4 5
3 more votes to show rating
add to favorites
launch autoscroll
font size
0
reset
guitar tuner
×
Best way to learn
"El Precio"
Autoscroll
slow
fast
+/-
esc
set tempo
stop
en esta cancion el bajo comienza
en el minuto 1
01:03
E|--5----|-----3--|
A|----55-|-5-3----|
D|-------|--------|
G|-------|--------|

Tengo tanto
E|--1-|---|---|---|-------|-1---|-----------|----------------|
A|----|-3-|-3-|-5-|-5-3-1-|---3-|-5---------|----------------|
D|----|---|---|---|-------|-----|---000-3-0-|-0-3-0-5-7/9/0--|
G|----|---|---|---|-------|-----|-----------|----------------|

Intentare
E|--1-1-|-1----|---|---|---|------|---|--------------------|
A|------|---33-|---|---|---|-3-33-|-5-|-5---5------5----5--|
D|------|------|-3-|-2-|-3-|------|---|--7---7------5------|
G|------|------|---|---|---|------|---|---7---5h77---5h7---|

Juro que no
E|--1-|-1----|---|---|---|------|---|----------------|
A|----|---33-|---|---|---|-3-33-|-5-|-5---5-------5--|
D|----|------|-3-|-2-|-3-|------|---|--7---7-----7---|
G|----|------|---|---|---|------|---|---7---7-5h7----|

El miedo me corteja
E|----|------|---|------|-------|
A|--1-|-1-33-|-5-|-3-55-|-5-3-1-|
D|----|------|---|------|-------|
G|----|------|---|------|-------|

que no cante victoria
E|----|------|--------|-----------3-1--|
A|--1-|-1-33-|-55-555-|-555-500-0------|
D|----|------|--------|----------------|
G|----|------|--------|----------------|

perdi, perdi libertad
E|--1-|-1---|---|---|-------|-1---|-----------|----------------|
A|----|--33-|-3-|-5-|-5-3-1-|---3-|-5---------|----------------|
D|----|-----|---|---|-------|-----|---000-3-0-|-0-3-0-5-7/9/0--|
G|----|-----|---|---|-------|-----|-----------|----------------|

abrazame no me dejes caer
E|--1-1-|-1----|---|---|---|------|---|--------------------|
A|------|---33-|---|---|---|-3-33-|-5-|-5---5------5----5--|
D|------|------|-3-|-2-|-3-|------|---|--7---7------5------|
G|------|------|---|---|---|------|---|---7---5h77---5h7---|

ayudame dame tu luz
E|--1-|-1----|---|---|---|------|---|----------------|
A|----|---33-|---|---|---|-3-33-|-5-|-5---5-------5--|
D|----|------|-3-|-2-|-3-|------|---|--7---7-----7---|
G|----|------|---|---|---|------|---|---7---7-5h7----|

E|----|------|---|------|-------|
A|--1-|-1-33-|-5-|-3-55-|-5-3-1-|x3
D|----|------|---|------|-------|
G|----|------|---|------|-------|

E|----|------|--------|-----------3-1--|
A|--1-|-1-33-|-55-555-|-555-500-0------|
D|----|------|--------|----------------|
G|----|------|--------|----------------|

E|--1-|-1---|---|---|-------|-1---|-----------|----------------|
A|----|--33-|-3-|-5-|-5-3-1-|---3-|-5---------|----------------|
D|----|-----|---|---|-------|-----|---000-3-0-|-0-3-0-5-7/9/0--|
G|----|-----|---|---|-------|-----|-----------|----------------|

Intentare
E|--1-1-|-1----|---|---|---|------|---|--------------------|
A|------|---33-|---|---|---|-3-33-|-5-|-5---5------5----5--|
D|------|------|-3-|-2-|-3-|------|---|--7---7------5------|
G|------|------|---|---|---|------|---|---7---5h77---5h7---|

Juro que no
E|--1-|-1----|---|---|---|------|---|----------------|
A|----|---33-|---|---|---|-3-33-|-5-|-5---5-------5--|
D|----|------|-3-|-2-|-3-|------|---|--7---7-----7---|
G|----|------|---|---|---|------|---|---7---7-5h7----|

abrazame no me dejes caer
E|--1-|-1----|---|---|---|------|---|--------------------|
A|----|---33-|---|---|---|-3-33-|-5-|-5---5------5----5--|
D|----|------|-3-|-2-|-3-|------|---|--7---7------5------|
G|----|------|---|---|---|------|---|---7---5h77---5h7---|

ayudame dame tu luz
E|--1-|-1----|---|---|---|------|---|----------------|
A|----|---33-|---|---|---|-3-33-|-5-|-5---5-------5--|
D|----|------|-3-|-2-|-3-|------|---|--7---7-----7---|
G|----|------|---|---|---|------|---|---7---7-5h7----|

Intentare
E|--1-1-|-1----|---|---|---|------|---|--------------------|
A|------|---33-|---|---|---|-3-33-|-5-|-5---5------5----5--|
D|------|------|-3-|-2-|-3-|------|---|--7---7------5------|
G|------|------|---|---|---|------|---|---7---5h77---5h7---|

Juro que no
E|--1-|-1----|---|---|---|------|----|
A|----|---33-|---|---|---|-3-33-|-5--|
D|----|------|-3-|-2-|-3-|------|----|
G|----|------|---|---|---|------|----|

ya saben se lo dedico andrea
atte. miauricio gatolar
Suggest correction
Give kudos to tab author, rate the tab!
1 2 3 4 5
comments
print report bad tab
guest
You may want to rate the tab now too:
select rating
Wanna post a correction for this tab? Suggest correction