Oops, an error
Loading. Please wait.

En Tu Estrella Tab

version 1
version 1

Whole song

29 views 1 this week
no commentswrite comment
1 2 3 4 5
3 more votes to show rating
add to favorites
×
Save as Personal and add changes to this tab that will be seen only by you. Learn more ›
×
You can save this tab as Personal to edit and correct it or add notes. All changes will be seen only by you. Learn more »
save as personal
new!
launch autoscroll
font size
0
reset
how to read this tab
guitar tuner
Autoscroll
slow
fast
+/-
esc
set tempo
stop
¡¡¡¡¡¡¡¡¡¡¡¡¡¡¡¡¡¡¡¡¡ESTABA BASTANTE MAL DIEGO!!!!!!!!!!!!!!!!!!!!


    EN TU ESTRELLA
(Always somewhere)

El amor es lo que queda cuando se acaba la pasión, y el amor es calma,
es sosiego. El amor no pide, da, y cuando todas las críticas se vierten
sobre uno, el amor no juzga, ¡apoya!
TE QUIERO MALI!!!!!!!!!

INTRO:

=00:00=

  Base:

RIFF 1:
        C              G                F         E         A        x6
e|-----------------------3-----3-----0----1---------0---------0-----0--|
B|------1-----1-----0------0-----0----------1---------0---------1------|
G|--------0-----0------------0-----0-----------2---------0--------2----|
D|----------2-----2---------------------3---------2--------------------|
A|0-2-3-----------------------------------------------------0----------|
E|---------------------3-----------------------------------------------|

RIFF 2:
           C             G                F              A
e|-------------------------3-----3-----0----1-----1------0-----0-------|
B|-------1-----1-----0-------0-----0----------1-----1------1-----1-----|
G|---------0-----0-------------0-----0----------2-----2------2-----2---
D|-----------2-----2----------------------3----------------------------|
A|-0-2-3---------------------------------------------------------------|
E|-----------------------3---------------------------------------------|


-Gtrra. acùstica:
<Frank>
e|---------------------------|
B|----8---8/10/8-------------|
G|--7---7--------------------|
D|----------------9h10-------|
A|---------------------12~~--|
E|---------------------------|

-Gtrra. elèctrica:
<Jorge Salan>
e|----------------------------------|
B|----------------------------------|
G|--5h7-7p5---5h7~~~--7-7p5---------|
D|----------7---------------7~~-----|
A|----------------------------------|
E|----------------------------------|

-Gtrra. elèctrica:
<Jorge Salan>
          RIFF 1                  RIFF 2
e|------------------------|----------------------|
B|------------------------|--------------/10~~---|
G|--/9~--/7~--/5-4-5p4----|---/9~--/7~-----------|
D|------------/5-------7~-|----------------------|
A|------------------------|----------------------|
E|------------------------|----------------------|


=00:55=

Cuando tú llores, te reiré      RIFF 1

Y si te pierdes, te tendré      RIFF 2

Cuando tú calles, te hablaré    RIFF 1

Y en tus silencios, diré        RIFF 2


=01:30=

e|-15p13-----13p12----------------------------15p13-----13p12--------|
B|-------17~--------15~-------12.-13.-12.-----------17~-------15/12~-|
G|------------------------14.-------------14~------------------------|
D|-------------------------------------------------------------------|
A|-------------------------------------------------------------------|
E|-------------------------------------------------------------------|

e|-17p19--/17-15-14/12------|
B|--------------------------|Acompañado del
G|--------------------------|RIFF 1 y RIFF 2
D|--------------------------|
A|--------------------------|
E|--------------------------|

=01:49=

Cuando me olvides, a ti iré            RIFF 1

Y si tú sueñas, dormiré                RIFF 2

Y si el invierno, en ti decide morar,  RIFF 1

seré calor, y mi abrazo... tu hogar.   RIFF 2


CORO:

=02:24=

C            G
  Y en tu estrella
A          E
  noche seré,
F            G            C    G
  para dormir en ti otra vez.

C            G
  Y en tu estrella
A                  E
  un haz de luz seré,
F             G                  C  G
  para acariciarte allí donde estés.


SOLO


=03:39=

Y cuando muera, me marcharé               RIFF 1

sin una queja y en paz.                   RIFF 2

Pues he tenido en ti, la más bella flor.  RIFF 1

Y en cada beso, ¡amor!                    RIFF 2


CORO:

=04:16=

C            G
  Y en tu estrella
A          E
  noche seré,
F            G            C    G
  para dormir en ti otra vez.

C            G
  Y en tu estrella
A                  E
  un haz de luz seré,
F             G                  C  G
  para acariciarte allí donde estés.


AHI ESTA... OTRA MAS.
OJALA LES SIRVA, Y SE ANIMEN A SACAR LAS SUYAS.


                       DEDICADA A MI ESTRELLA:
    --"M A L I" Sabes que te kiero muchisisisismo verdad??--


¡We must be over the rainbow!

¡¡¡¡¡¡¡¡ HASTA SIEMPRE CABRONES !!!!!!!!!!

»© mÄg0tâgLE ®«
Suggest correction
Give kudos to tab author, rate the tab!
1 2 3 4 5
comments
print report bad tab
guest
Wanna post a correction for this tab? Suggest correction