Oops, an error
Loading. Please wait.

En Tu Estrella tab

version 2
version 2

Whole song

34 views 3 this week
no commentswrite comment
1 2 3 4 5
3 more votes to show rating
add to favorites
×
Save as Personal and add changes to this tab that will be seen only by you. Learn more ›
×
You can save this tab as Personal to edit and correct it or add notes. All changes will be seen only by you. Learn more »
launch autoscroll
font size
0
reset
how to read this tab
guitar tuner
edit
Autoscroll
slow
fast
+/-
esc
set tempo
stop
Hey Aquí les mando de nuevo una Kanción esta vez de José Andrea. Es una
Buena Rola Pónganle ganas para que la puedan saKar. Creo que están muy
bien las notas, y los solos me parece que están buenos Pero tienen que
ponerle Un PoKo de oído e interés para que les suene Bien. Esta Kanción
la he sacado con una Guitarra acústiKa y creo que suena vergón Pruébenla
les servirá mucho, en especial a  aquellos que no tienen un guitarra
eléctriKa.

Ahí está cabrones échenle ganas. Saludos desde EL SALVADOR. Por algo
aquí esta mi correo. Aenigmalost_iacv@ Escríbanme si tienen
dudas, sugerencias, o cualquier cosa que quieran escribir esta bien,
Y además A MI me gustaría saber que piensan de Kómo  e sacado esta rola.

Intro:

PRIMERA GUITARRA
            C                   G                  F

E|---------------------|--0h3--------------|---1----------|
A|-0-2-3---------------|-------------------|--------------|
D|-----------2-----2---|-------------------|--------------|
G|---------0-----0-----|--------0----0-----|----------2---|
B|-------1-----1-----1-|-------0----0------|--------1-----|
e|---------------------|------3----3-----3-|---1--1-------|


     Am/Em         Am

E|---------------|-----------------|
A|---------------|---0-------------|
D|---2-----------|-----------------|
G|----------2----|----------2------|
B|--------1------|--------1--------|
e|------0--------|------0------0---|

Todo el arpegio anterior se repite 6 veces


SEGUNDA GUITARRA

En la tercera vez que se repite el arpegio empieza el punteo,
solo es de escuchar bien a que hora empieza el punteo

E|-----------------|---------------|---------------------|
A|-----------------|---------------|---------------------|
D|-----------------|---------------|-----------7---------|
G|-------------7v--|--4/5-2v-------|--5/7-7p5----5/7v----|
B|-3/5-5-3-3/5-----|---------------|---------------------|
e|-----------------|---------------|---------------------|


E|--------------|-----------------------|----------------|
A|--------------|-----------------------|----------------|
D|----------7---|---------------------7-|----------------|
G|--5/7-7p5-----|-9v7v---2/4b3r4b3r4---|-9v7v----------|
B|--------------|-----------------------|--------0/(10v)-|
e|--------------|-----------------------|----------------|


Aquí comienza a cantar


C          G
 Cuando tú  llores

F    Em    Am
 Te  ten  dré


C        G
 Y si te  pierdes

        Am
 Te tendré


C            G
 Cuando tú calles

F      Em     Am
 Te  habla    ré


C          G
 Y en tu silencio

  Am
Diré


Solo 1:

Una guitarra toca en el fondo el arpegio inicial dos veces y la
otra toca el punteo del solo con más fuerza.


E|---------------------------------------------|
A|---------------------------------------------|
D|---------------------------------------------|
G|---------------------------------------------|
B|----------------------10-12-13-12-10b9r10b9--|
e|--15p13-12v-13p12-10v------------------------|


E|--------------------------|----------------------------------|
A|--------------------------|----------------------------------|
D|--------------------------|----------------------------------|
G|--------------------------|----------------------------------|
B|------------------(12)----|----------------------------------|
e|--15p13-12v-13p12---------|--(17)-17-15-12h13-(12)-----------|


C            G
 Cuando me olvides

F      Em    Am
 Par - ti - ré

C        G
 Y si tú sueñas

      Am
 Dormiré


C           G
 Y si el invierno

    F      Em     Am
 En ti decide  mora aar


C          G
 Seré el calor

                  Am
 Y mi abrazo tu hoga aar


CORO:

C           G        Em
 Y en tu estrella a a

Am        F
 Noche seréee

F          G            C         G
 Para dormir en ti otra ve e ez


C           G        Em
 Y en tu estrella a a

Am                F
 Un haz de luz seréee

F            G                  C      G
 Para acariciarte allí donde este e es


Solo 2:


E|----------------------------------|-------------------------|
A|----------------------------------|-------------------------|
D|----------------------------------|-------------------------|
G|----------------------------------|--9h10---------12b14r12--|
B|-----------12----------12---10v0-|-------10p8-10-----------|
e|--(12)-10v----10v-108----8-------|-------------------------|


E|----------------------------|------------------------------|
A|----------------------------|------------------------------|
D|----------------------------|---------------7--------------|
G|--12b14r12-12-10-9h10p9-----|--9p7-5-7/97-----------------|
B|----------------------------|------------------------------|
e|----------------------------|------------------------------|


E|----------------------------------------------------|
A|----------------------------------------------------|
D|----------------------------------------------------|
G|----------------------------------------------2/50-|
B|---------------------------10-10h12------108-------|
e|-12/15-(17)-15-13/12-10v0-----------87------------|


E|--------------------------------------------|
A|--------------------------------------------|
D|--------------------------------------------|
G|-10h12--------------------------------------|
B|-------(10)8----10h12p108--------17-8/10v-|
e|--------------12-------------15-12----------|


C           G
 Y cuando mueras


     F     Em    Am
 Me mar - cha - re


C          G
 Sin una queja

       Am
 Y en paz


C           G
 Pues he perdido

     F         Em    Am
 En ti la más bella flor

C           G
 Y en cada beso

   Am
 Amor


Coro:


Final:


            C                   G                  F

E|---------------------|--0h3--------------|---1----------|
A|-0-2-3---------------|-------------------|--------------|
D|-----------2-----2---|-------------------|--------------|
G|---------0-----0-----|--------0----0-----|----------2---|
B|-------1-----1-----1-|-------0----0------|--------1-----|
e|---------------------|------3----3-----3-|---1--1-------|


    Am/Em

E|---------------|
A|---------------|
D|---2-----------|
G|----------2----|
B|--------1------|
e|------0--------|


  Am/Em

E|---------------|
A|---------------|
D|---2-----------|
G|----------2----|
B|--------1------|
e|------0--------|


se repite 2 veces  desde donde dice final hasta aqui
y sobre el arpegio va este punteo


E|---------------------------------------------------------------|
A|-------------------------------------------------------5/7-----|
D|-------------------------------------------9-------5/7---------|
G|--7/9v-9-9-7-7v-7/9v-9-9-9-5-5v------9-7-5---5-2/5-------------|
B|--------------------------------8/10---------------------------|
e|---------------------------------------------------------------|


Bueno esto es todo espero que les haya gustado lo hice lo mejor posible
y con mucho esmero para que les salga bien. Espero que la puedan
tocar suerte, Sacaré más canciones y las subiré.
¡¡¡¡¡¡¡¡¡¡LARGA VIDA AL METAL!!!!!!!!

Hasta la próxima. Y A LUCHAR POR NUESTRA  MADRE TIERRA.
NO DEJEMOS q mUERA

/  = slide down
  = slide up
B  = Bend
h  = Hammer on
p  = Pull off
() = significa que la nota sigue sonando
s  = deslizar sin volver a tocar la nota
v  = Vibrado


...

            
            
Suggest correction
Creating personal tab
Creating personal tab
You can edit any tab online and save it as your Personal.

You can edit, replace or remove any tab part or add personal notes – all changes will be seen only by you.

Personal tabs can be accessed anytime from any device, even offline.
Learn more »
Give kudos to tab author, rate the tab!
1 2 3 4 5
comments
print report bad tab
guest
Wanna post a correction for this tab? Suggest correction