Oops, an error
Loading. Please wait.

Engañando Al Olvido Bass

53 views 1 this week
no commentswrite comment
1 2 3 4 5
3 more votes to show rating
add to favorites
launch autoscroll
font size
0
reset
guitar tuner
×
Best way to learn
"Engañando Al Olvido"
Autoscroll
slow
fast
+/-
esc
set tempo
stop
Esta cancion me agrade en especial
Intro
E|----|---3---|---3-|-3-1--|
A|--3-|-3---0-|-0---|------|x2
D|----|-------|-----|------|
G|----|-------|-----|------|

Hoy quiero enseñar a mi soledad
E|----|---3---|---3-|-3-3-|-3-5---|---5-|-----|---3--|
A|--3-|-3---0-|-0---|-----|-----5-|-5---|-0-1-|-1----|
D|----|-------|-----|-----|-------|-----|-----|------|
G|----|-------|-----|-----|-------|-----|-----|------|

Hay tanto de mi
E|----|---3---|---3-|-3-3-|-3-5---|---5-|-----|---1-|-1-3-|-3-3-|
A|--3-|-3---0-|-0---|-----|-----5-|-5---|-0-1-|-1---|-----|-----|
D|----|-------|-----|-----|-------|-----|-----|-----|-----|-----|
G|----|-------|-----|-----|-------|-----|-----|-----|-----|-----|

Y cada noche mi amor
E|--1-3-5-|-----|---1-|-1-3-5-|-3-|-3-33--|
A|--------|-0-3-|-3---|-------|---|-------|
D|--------|-----|-----|-------|---|-------|
G|--------|-----|-----|-------|---|-------|

Tengo por mi dolor
E|--1-3-5-|-----|---1-|-1-3-5-|-3--|
A|--------|-0-3-|-3---|-------|----|
D|--------|-----|-----|-------|----|
G|--------|-----|-----|-------|----|

Intro
E|----|---3---|---3-|-3-1--|
A|--3-|-3---0-|-0---|------|
D|----|-------|-----|------|
G|----|-------|-----|------|

o Hoy me visito aquel
E|----|---3---|---3-|-3-3-|-3-5---|---5-|-----|---3--|
A|--3-|-3---0-|-0---|-----|-----5-|-5---|-0-1-|-1----|
D|----|-------|-----|-----|-------|-----|-----|------|
G|----|-------|-----|-----|-------|-----|-----|------|

y si eh de viajar
E|----|---3---|---3-|-3-3-|-3-5-----5-|-----|-----|-3-|-3-3-|
A|--3-|-3---0-|-0---|-----|-----5-7---|-0-1-|-1-0-|---|-----|
D|----|-------|-----|-----|-----------|-----|-----|---|-----|
G|----|-------|-----|-----|-----------|-----|-----|---|-----|

Y cada noche mi amor
E|--1-3-5-|-----|---1-|-1-3-5-|-3-|--3--3--|
A|--------|-0-3-|-3---|-------|---|-5--5---|
D|--------|-----|-----|-------|---|--------|
G|--------|-----|-----|-------|---|--------|

Tengo por mi dolor
E|--1-3-5-|-----|---1-|-1-3-5-|-------------------|
A|--------|-0-3-|-3---|-------|-3/10--------------|
D|--------|-----|-----|-------|------555-3h5-555--|
G|--------|-----|-----|-------|-------------------|

ohh
E|--------|-----5-|---------|-----5--|
A|------5-|-5-3---|-3-5---3-|-5-3----|
D|--5-3---|-------|-----5---|--------|
G|--------|-------|---------|--------|

La ironia es la tristeza que
E|----|--------|--------|-|---|--------|
A|--5-|-55-----|--------|-|---|--------|
D|----|----2-3-|-33-5-7-|-|-9-|-999-9--|
G|----|--------|--------|-|---|--------|

Y si la vida nos da
E|----|--------|--------|-----|---3-|-333-|
A|--5-|-55-----|------3-|-333-|-3---|-----|
D|----|----2-3-|-33-5---|-----|-----|-----|
G|----|--------|--------|-----|-----|-----|

E|--1-3-5-|-----|-----|-1-3-5-|-3-|---33--|
A|--------|-0-3-|-3---|-------|---|-5-----|
D|--------|-----|---3-|-------|---|-------|
G|--------|-----|-----|-------|---|-------|

Y cada noche mi amor
E|--1-3-5-|-----|---1-|-1-3-5-|-3-|--3--3--|
A|--------|-0-3-|-3---|-------|---|-5--5---|
D|--------|-----|-----|-------|---|--------|
G|--------|-----|-----|-------|---|--------|

Fedo por mi dolor
E|--1-3-5-|-----|-----|-1-3-5-|-------------------|
A|--------|-0-3-|-3---|-------|-3/10-------55-33--|
D|--------|-----|---3-|-------|------55-33--------|
G|--------|-----|-----|-------|-------------------|

Cada noche mi amor
E|--1-3-5-|-----|---1-|-1-3-5-|-------------------|
A|--------|-0-3-|-3---|-------|-3/10--------------|
D|--------|-----|-----|-------|------555-3h5-555--|
G|--------|-----|-----|-------|-------------------|

Y cambio por mi dolor
E|--1-3-5-|-----|-----|-1-3-5-|-------------------|
A|--------|-0-3-|-3---|-------|-3/10-------55-33--|
D|--------|-----|---3-|-------|------55-33--------|
G|--------|-----|-----|-------|-------------------|

Termina  Cada noche
E|--1-3-5--|
A|---------|
D|---------|
G|---------|

ya sabe dedicado a andrea
ahora que me acuerdo
ella no me la hizo escuchar
pero escucha de estas
solo me lo copie de error
pero igual me agrada

atte. miauricio gatolar
Suggest correction
Give kudos to tab author, rate the tab!
1 2 3 4 5
comments
print report bad tab
guest
You may want to rate the tab now too:
select rating
Wanna post a correction for this tab? Suggest correction