Oops, an error
Loading. Please wait.

Lo Que Quiero Eres Tú Bass Tab

14 views 1 this week
no commentswrite comment
1 2 3 4 5
3 more votes to show rating
add to favorites
launch autoscroll
font size
0
reset
guitar tuner
Autoscroll
slow
fast
+/-
esc
set tempo
stop
Help us to improve Ultimate-Guitar.com Take our survey!
×
Ahi les va esta cancion
la envio porque me encanto al escucharla
esta chido este grupo
aunque no es el tipo de musica que me gusta
pero ojo
las canciones que me agradan las envio
o si me las piden
trato de satisfacerlos yaaaah
Intro
E|----|------3-|-3-33-33--|
A|--1-|-1-00---|----------|
D|----|--------|----------|
G|----|--------|----------|

E|----|------3-|-------|
A|--1-|-1-00---|-5-----|
D|----|--------|--555--|
G|----|--------|-------|

Dame una razon para tener
E|----|------3-|-3-33-33--|
A|--1-|-1-00---|----------|x4
D|----|--------|----------|
G|----|--------|----------|

E|----|------3-|-3-33-33--|
A|--1-|-1-00---|----------|
D|----|--------|----------|
G|----|--------|----------|

Dime donde vive
E|----|------3-|-3-33-33--|
A|--1-|-1-00---|----------|x2
D|----|--------|----------|
G|----|--------|----------|

Pues mi suerte
E|----|------3-------------|
A|--1-|-1-00---3h5---------|
D|----|-----------3h5------|
G|----|--------------5/12--|

Y mi duende no se deja
E|----|------3-|-3-33-33--|
A|--1-|-1-00---|----------|
D|----|--------|----------|
G|----|--------|----------|

Lo que quiero eres tu
E|----1-3-|---1-3--|
A|--1-----|-1------|
D|--------|--------|
G|--------|--------|

Y si al final
E|----|-1-|-----3-|---|-1-|-3-|-333-|-3-|-333--|
A|--1-|---|-1-0---|-1-|---|---|-----|---|------|
D|----|---|-------|---|---|---|-----|---|------|
G|----|---|-------|---|---|---|-----|---|------|

E|----------|-------|-------------3--|
A|----------|-------|-----------3----|
D|--3-5/8-7-|-5-3-5-|-3h5-5-3h5------|
G|----------|-------|----------------|

E|--1-1-1-|---------|-3-3-3-|---------------|
A|--------|-1-3-----|-------|-5---------5---|
D|--------|-----5/3-|-------|--5-7/9-7-5-5--|
G|--------|---------|-------|---------------|

Una cancion
E|--1-1-1-|---------|-3-3-3-|---3---3--|
A|--------|-1-3-----|-------|--5---5---|
D|--------|-----5/3-|-------|-5---5----|
G|--------|---------|-------|----------|

Primer amor
E|--1-1-1-|---------|-3-3-3-|---------------|
A|--------|-1-3-----|-------|-5---------5---|
D|--------|-----5/3-|-------|--5-7/9-7-5-5--|
G|--------|---------|-------|---------------|

oor
E|--1-1-1-|---------|-3-3-3-|---3---3--|
A|--------|-1-3-----|-------|--5---5---|
D|--------|-----5/3-|-------|-5---5----|
G|--------|---------|-------|----------|

E|--------|-------|-33-33-|-33-33--|
A|--11-11-|-00-00-|-------|--------|x4
D|--------|-------|-------|--------|
G|--------|-------|-------|--------|

oh
E|----|-1-|-----3-|---|-1-|-3-|-333-|-3-|-333--|
A|--1-|---|-1-0---|-1-|---|---|-----|---|------|
D|----|---|-------|---|---|---|-----|---|------|
G|----|---|-------|---|---|---|-----|---|------|

E|--3-|-333-|-3-|-333--|
A|----|-----|---|------|
D|----|-----|---|------|
G|----|-----|---|------|

Con el viento musica sere
E|----|------3-|-3-33-33--|
A|--1-|-1-00---|----------|x4
D|----|--------|----------|
G|----|--------|----------|

Lo que quiero eres tu
E|----1-3-|---1-3--|
A|--1-----|-1------|
D|--------|--------|
G|--------|--------|

Y si al final
E|----|-1-|-----3-|-0-|-1-|-3-|-333-|-3-|-333--|
A|--1-|---|-1-0---|---|---|---|-----|---|------|
D|----|---|-------|---|---|---|-----|---|------|
G|----|---|-------|---|---|---|-----|---|------|

E|--3-|-333-|
A|----|-----|con esto acaba
D|----|-----|aprox x9
G|----|-----|

ojo este tipo de musica se lo dedico a andrea

atte. miauricio gatolar
Suggest correction
Give kudos to tab author, rate the tab!
1 2 3 4 5
comments
print report bad tab
guest
You may want to rate the tab now too:
select rating
Wanna post a correction for this tab? Suggest correction