Oops, an error
Loading. Please wait.

Tus Lágrimas No Besan Bass Tab

4 views 1 this week
no commentswrite comment
1 2 3 4 5
3 more votes to show rating
add to favorites
launch autoscroll
font size
0
reset
guitar tuner
×
Best way to learn
"Tus Lágrimas No Besan"
Autoscroll
slow
fast
+/-
esc
set tempo
stop
en esta cancion el bajo comienza en el seg
00:23
Si la eternidad se queja
E|----|----|-----|----|--42-|-22-|-222-|-22--|
A|--0-|-00-|-000-|-00-|-0---|----|-----|-----|
D|----|----|-----|----|-----|----|-----|-----|
G|----|----|-----|----|-----|----|-----|-----|

      no hay amanecer
E|----0-|-00-|--00-|-00-|-----|------|--5--|-------0--|
A|--20--|----|-----|----|-035-|-55-5-|-5-5-|-555/0----|
D|------|----|-----|----|-----|------|-----|----------|
G|------|----|-----|----|-----|------|-----|----------|

Levantate
E|--1111-|-3333-|-1111-|-5555-|-1111-|-3333-|-------|
A|-------|------|------|------|------|------|-0(8)--|
D|-------|------|------|------|------|------|-------|
G|-------|------|------|------|------|------|-------|

Que el viento te lleve
E|-------|--------|-----0-0-|-0-023-|-5--|
A|--5-55-|-0-2-22-|-2-20----|-------|----|
D|-------|--------|------2--|-------|----|
G|-------|--------|---------|-------|----|

Que el viento te lleve
E|-------|--------|-----0-0-|-0-023-|-|-3-3--|
A|--5-55-|-0-2-22-|-2-20----|-------|-|------|
D|-------|--------|------2--|-------|-|------|
G|-------|--------|---------|-------|-|------|

Y aunque te cueste la vida
E|----|----|---|----|-------2-|-22-|---2-|-22--|
A|--0-|-00-|-0-|-00-|-5/7/3---|----|-----|-----|
D|----|----|---|----|---------|----|-2---|-----|
G|----|----|---|----|---------|----|-----|-----|

  pues no hay mayor dolor
E|--0-|-00-|--00-|-00-|-----|----|-----|------|
A|----|----|-----|----|-035-|-55-|-345-|-555--|
D|----|----|-----|----|-----|----|-----|------|
G|----|----|-----|----|-----|----|-----|------|

Levantate
E|--1111-|-3333-|-1111-|-5555-|-1111-|-3333-|-------|
A|-------|------|------|------|------|------|-0(8)--|
D|-------|------|------|------|------|------|-------|
G|-------|------|------|------|------|------|-------|

Que el viento te lleve
E|-------|--------|-----0-0-|-0-023-|-5--|
A|--5-55-|-0-2-22-|-2-20----|-------|----|
D|-------|--------|------2--|-------|----|
G|-------|--------|---------|-------|----|

Que el viento te lleve
E|-------|--------|-----0-0-|-0-023-|-5555--|
A|--5-55-|-0-2-22-|-2-20----|-------|-------|
D|-------|--------|------2--|-------|-------|
G|-------|--------|---------|-------|-------|

           El mañana
E|-------|------|-------|
A|--2(8)-|-5555-|-0000--|x4
D|-------|------|-------|
G|-------|------|-------|

E|-------|--------|----4-2-22-|-245-|-7--|
A|--7-77-|-2-4-44-|-442-------|-----|----|
D|-------|--------|-----------|-----|----|
G|-------|--------|-----------|-----|----|

E|-------|--------|---2-22-|-2455-|-77--|
A|--7-77-|-2-4-44-|-42-----|------|-----|
D|-------|--------|--------|------|-----|
G|-------|--------|--------|------|-----|

Levantate
E|--3333-|-5555-|-3333-|------|
A|-------|------|------|-2222-|
D|-------|------|------|------|
G|-------|------|------|------|

E|--3333-|-5555-|-----------------------|
A|-------|------|-2(4)-----------5-4-2--|
D|-------|------|----------5-4-2--------|
G|-------|------|------4-2--------------|

Cuando toca la bateria es A

Que el viento te lleve
E|-------|--------|-----0-0-|-0-023-|-5--|
A|--5-55-|-0-2-22-|-2-20----|-------|----|
D|-------|--------|------2--|-------|----|
G|-------|--------|---------|-------|----|

Que el viento te lleve
E|-------|--------|-----0-0-|-0-023-|-5555--|
A|--5-55-|-0-2-22-|-2-20----|-------|-------|
D|-------|--------|------2--|-------|-------|
G|-------|--------|---------|-------|-------|

Que el viento te lleve
E|-------|--------|-----0-0-|-0-023-|-5--|
A|--5-55-|-0-2-22-|-2-20----|-------|----|
D|-------|--------|------2--|-------|----|
G|-------|--------|---------|-------|----|

Que el viento te lleve
E|-------|--------|-----0-0-|-0-023-|-5-|----|
A|--5-55-|-0-2-22-|-2-20----|-------|---|-5--|
D|-------|--------|------2--|-------|---|----|
G|-------|--------|---------|-------|---|----|

dedicado a andrea

a y viva la U

psicosis, neurosis, orgia  adelante Psicologia

yaaaaah

atte. miaurico gatolar
Suggest correction
Give kudos to tab author, rate the tab!
1 2 3 4 5
comments
print report bad tab
guest
You may want to rate the tab now too:
select rating
Wanna post a correction for this tab? Suggest correction