Oops, an error
Loading. Please wait.

No Sería Importante Chords

7 views 1 this week
no commentswrite comment
1 2 3 4 5
3 more votes to show rating
add to favorites
launch autoscroll
font size
0
reset
transpose
0
reset
simplify chords
display chords
guitar tuner
×
Best way to learn
"No Sería Importante"
Autoscroll
slow
fast
+/-
esc
set tempo
stop
No sería importante
Letra/Música: José Antonio Delgado

Cadd9  : x/x/0/11/10/0            A      : 5/7/7/6/5/5
Mim6/Re : x/x/0/9/8/9            Re9/F#  : 2/x/0/2/3/0
La6/Re  : x/x/0/11/10/12      Mim     : 0/2/2/0/0/0
G6    : x/x/0/9/8/10            D      : x/x/0/2/3/2  x/x/0/2/3/3
Bm     : 2/2/4/4/3/2

Introduccion
  Cadd9                                 Mim6/Re
|----------0------------------0----------------9----------------9---------|
|-10----10--10--10----10---10--10--10----8---8---8---8----8---8---8---8---|
|----11-------11--11-----11------11--11----9-------9---9----9-------9---9-|
|--0------------------0------------------0----------------8---------------|
|-------------------------------------------------------------------------|
|-------------------------------------------------------------------------|

   La6/Re                            G6
|---------12---------------12--------------10----------------10-----------|
|--10--10--10--10----10--10--10--10--8---8----8---8----8---8----8---8-----|
|----11------11--11----11------11------9--------9---9----9--------9---9---|
|--0-----------------0---------------0-----------------0------------------|
|-------------------------------------------------------------------------|
|-------------------------------------------------------------------------|


 Cadd9
Buscando en la memoria el inicio de la historia,
 Mim6/Re
comienzo tortuoso, algo embarazoso,
  Bm
tu a mi no me querías como compañero de prácticas,
  A
sentarme al lado tuyo no creas que me hizo gracia.

 Cadd9
Vaya tipo extraño con chubasquero amarillo,
 Mim6/Re
yo con chandal y con gafas, vaya dos pardillos.
  Bm
Hacerte amigo mío no entraba en mis planes
  A
y tú sin darte cuenta te encaramaste a este viaje.

  G
Y ahora el tiempo ha pasado, los dos hemos cambiado,
 Re9/F#
quizás algo más tristes, quizás algo más sabios,
  Em
no olvides tu promesa, corazón inquieto,
   La                                                [Introduccion] y ritmo
vive fiel a tus deseos... como siempre fue tu sueño.

 D
Málaga te ha visto reinventar pasiones,
 Em
caminar bajo la lluvia coloreando nubarrones,
 Bm
perderte por sus calles con este viejo amigo,
 A
y tararear alguna estrofa de algún poema mio.

 D
Te llevas su aroma humilde viajero,
 Em
la olas de su playa y el perfume de su puerto.
 Bm
Promete que este adiós tan sólo es un hasta luego,
 A
y no dudes que este loco ya esta echando de menos.

 G
Y no olvides que me debes un viaje hasta el espacio
 Re9/F#
y un par de borracheras para vomitar los años,
 Em
enseñarme La Alcazaba justo antes del ocaso
   A
y una partida de cartas para secarte los cuartos,

 G
Y no creas que me olvido de tu peli de Charles Chaplin
 Re9/F#
ni de la antologia de Miguel Hernandez,
  Em
los poemas de Pedro Salinas, la recomendacion de cine
 A
y la eterna discusion sobre si el amor existe.

  G                         Re9/F#
Y tu no te preocupes que si esa historia no cuaja
   Em                          A
tu te das media vuelta y te vuelves a casa,
 G                  Re9/f#
y no temas tanto seguir adelante,
    Em                 A   G     D
si no diese miedo... no sería importante.
Suggest correction
Give kudos to tab author, rate the tab!
1 2 3 4 5
comments
print report bad tab
guest
You may want to rate the tab now too:
select rating
Wanna post a correction for this tab? Suggest correction