Oops, an error
Loading. Please wait.

No Te Dolerá Tab

17 views 1 this week
no commentswrite comment
1 2 3 4 5
3 more votes to show rating
add to favorites
launch autoscroll
font size
0
reset
how to read this tab
guitar tuner
Autoscroll
slow
fast
+/-
esc
set tempo
stop
Help us to improve Ultimate-Guitar.com Take our survey!
×
Acordes:

La9/Do#   : x42200                 La7#9 : 577600
Si9/Re#   : x64400                 Si7#9 : 799800
Do#m7     : x46454                 Do#m  : x46654
Remaj7/La : x0x222                 Mi7#9 : x76800
Mimaj7/La : x0x444

Intro:

(1)                                       (2)
| La9/Do#  Si9/Re#  Do#m7               | | La9/Do#  Si9/Re#  Do#m7                |
|-------------------------------4-------| |--------------------------------7--4----|
|-------0--------0--------5-----------0-| |-------0--------0-----4h5p4-----------0-|
|----2--------4--------------4-----4----| |----2--------4---------------4----------|
|----------------------6----------------| |----------------------------------------|
|-4--------6--------4-------------------| |-4--------6--------4--------------------|
|---------------------------------------| |----------------------------------------|

(3)
| La9/Do#  Si9/Re#  Remaj7/La          Mimaj7/La            |
|--------------------------2-----0------------4-----2-------|
|-------0--------0-------2---2----2----------4---4----4-----|
|----2--------4--------2-------2---2s------4-------4----4s--|
|-----------------------------------------------------------|
|-4--------6--------0------------------0--------------------|
|-----------------------------------------------------------|

(4)
| Remaj7/La          Mimaj7/La              |
|--------2-----0---------4-4-2-2h4----4-4-2-|
|------2---2----2--------4-4-4-4------4-4-4-|
|----2-------2---2s-------------------------|
|-------------------------------------------|
|-0------------------0--------------0-------|
|-------------------------------------------|


Estrofa:
(repite patrón de arpegio de las secciones 1 y 2 de la intro, hasta el inicio del rasgueo en La7#9)

La9/Do#     Si9/Re#     DO#m7
Prueba a intentarlo una vez,
La9/Do#    Si9/Re#         DO#m7
por la boca muere y mata el pez.
La9/Do#    Si9/Re#        LA#79
Deja que te cante esa canción
    SI#79             LA#79
que seduce al mar y pervierte al sol,
     SI#79              LA#79           SI#79
que te hace temblar y no teme a Dios.

La9/Do#     Si9/Re#     DO#m7
Arriesga tu boca y su sabor
La9/Do#        Si9/Re#     DO#m7
y a uno de tus besos anclaré mi voz,
La9/Do#     Si9/Re#     LA#79
arriesga tu abrazo y no dudaré
    SI#79                    LA#79
en asediar la paz hasta corromper tu ser,
     SI#79              LA#79          SI#79
en tentar el azar, y morder tu piel.


Estribillo:
      DO#m             LA#79
Bajo esta canción nace la intención
        MI                 SI#79
de ensamblar tu alma con la mía,
     DO#m              LA#79
y claudica aquí mi miedo a morir
         MI                    SI#79
pues viviré mientras viva en tu risa.
     DO#m                LA#79
No lo dudes más, yo vengo a robar
        MI                 SI#79
hasta la ultima gota de tu saliva,
   DO#m             LA#79
déjate raptar, no te dolerá
    MI               SI#79         LA#79   SI#79
ser víctima de mis caricias...


Estrofa:
Amigo del viento, en su soplo me he instalado
acaricio su cuerpo sin llegar a tocarlo.
Desnudo sus labios y no puedo entrar,
no se rendirá jamás, mas yo debo entrar...
en su soledad.

Estribillo: (x2 - la segunda vuelta, mutando con la mano derecha en Do#m y La7#9)
Bajo esta canción nace la intención
de ensamblar tu alma con la mía,
y claudica aquí mi miedo a morir,
pues viviré mientras viva en tu risa.
No lo dudes más, yo vengo a robar
hasta la última gota de tu saliva.
Déjate raptar, no te dolerá,
ser víctima de mis caricias.

Outro:
LA#79 SI#79 MI SI#79 MI#79
Suggest correction
Give kudos to tab author, rate the tab!
1 2 3 4 5
comments
print report bad tab
guest
You may want to rate the tab now too:
select rating
Wanna post a correction for this tab? Suggest correction