Oops, an error
Loading. Please wait.

Nostalgia Chords

8 views 1 this week
no commentswrite comment
1 2 3 4 5
3 more votes to show rating
add to favorites
launch autoscroll
font size
0
reset
transpose
0
reset
simplify chords
display chords
guitar tuner
Autoscroll
slow
fast
+/-
esc
set tempo
stop
Help us to improve Ultimate-Guitar.com Take our survey!
×
......................................................................
ACORDES:

G:         320033
Em7:       020030
C:         x32010
D/F#:      2x0230
C(add9):   x32030
G/B:       x20030
Am7:       x02010
D7/F#:     2x021x
Em7(9):    024030
Em7(9)/B:  x24030
Am7/G:     3x2010
......................................................................


[CEJILLA en Traste 2]


ARMÓNICOS: I:12  IV:5  III:12  IV:5  [Varias veces]

INTRO:

  G                         Em7
||-------0-----2-----3-----|-------0-----2-----3-----|
||-3-------3-----3-----3---|-3-------3-----3-----0---|
||---0-------0-----0-----0-|---0-------0-----0-----0-|
||-----0-------------------|-----0-------------------|
||-------------------------|-------------------------|
||-3-----------------------|-0-----------------------|


 C                         D/F#
|-------3-----------3-----|-------0-----------------||
|-1-------1---1-------1---|-3-----------3-----------||
|---0-------0---0-------0-|---2-----2-----2---2---0-||
|-----2-----------0-------|-----0-----0-----0---0---||  [x2]
|-3-----------------------|-------------------------||
|-------------------------|-2-----------------------||


(ANTES DE LA PRIMERA ESTROFA):

 G                         Em7
|-------0-----------------|-------0-----------------|
|-3-----------3-----------|-3-----------3-----------|
|---0-----0-----0---0---0-|---0-----0-----0---0---0-|
|-----0-----0-----0---0---|-----0-----0-----0---0---|
|-------------------------|-------------------------|
|-3-----------------------|-0-----------------------|


  G                Em7           C               D/F#
A)Siempre que entra en mi memoria arranca un trozo de aquella historia
G              Em7            C              D/F#
llega de golpe, sale corriendo y mi alma queda medio muriendo.
  C(add9)  G/B
Y yo
Am7                 D/F#
no me acostumbro a mirar
    C(add9)  G/B  Am7
desde o - - tro
      D/F#
otro lugar.
G              Em7               C             D/F#
Siento nostalgia de aquellos días que abrazabas mi melodía
G               Em7    C                 D/F#
y albergabas mi corazón y eras motivo de toda canción.

              C       G        D7/F#      Em7(9)
B)Y ahora cualquier matiz de sencilla cotidianidad,
   C        G        D7/F#       Em7(9)
consigue evocar tu sonrisa y tu mirar,
     C        D7/F#     G  D7/F#  Em7(9)  Em7(9)/B
y desborda mi mente y condena mi suerte
  Am7  Am7/G
A no
  D7/F#    [INTRO]
volver a tenerte.

A)Camino abajo se ve la senda que ayer perdimos sin darnos cuenta,
cierro los ojos, tiendo las manos, y solo acaricio un recuerdo vago.
De ti llenando mis horas, de mi rescatándote entre olas.
Siento nostalgia de aquellos días en que fundamentabas mi alegría,
y yo albergaba tu corazón y tú amabas mi condición...

B)De ser soplo desgarrado que anida en tu balcón
te acaricia levemente y con furia te hace el amor,
sobre tu espalda desnuda derrama su rendición
y de tu boca hace su prisión.


 C            D             G           Em
|-0-----3-----2h3---5-----|-5s7---7-----3-----3-----||
|---1-----0-----3-----0---|---0-----0-----0-----0---||
|-----0-----0-----0-----0-|-----0-----0-----0-----0-||
|-------------0-----------|-------------------------|| [x2]
|-3-----------------------|-------------------------||
|-------------------------|-3-----------0-----------||


 C            D            G     D7/F#  Em    /
|-0h3---3-----2p0---0-----|-------------------------|
|---1-----0-----------3---|-3-----1p0---0---------0-|
|-----0-----0-----2-----0-|---0h2-------------------|
|-------------0-----------|-----------0-------2-----|
|-3-----------------------|-------------------------|
|-------------------------|-3-----2-----0-----------|


 Am7          Am7/G        D7/F#
|-------------------------|-------------------------|
|-1-----3-----1-----0-----|-------0-----1-----0-----|
|---0-----0-----0-----0---|-2---2---2-----2-----2---|
|-----2-----2-----2-----0-|---0-------0-----0-----0-|
|-0-----------------------|-------------------------|
|-------------3-----------|-2-----------------------|


 %
|-------------------0-----|
|-------0-----1-----------|
|-2---2---2-----2-----0---|
|---0-------0-----0-----0-|
|-------------------------|
|-2-----------------------|

A)Siempre que entra en mi memoria arranca un trozo de aquella historia
llega de golpe, sale corriendo y mi alma queda medio muriendo.
Y yo no me acostumbro a mirar
desde otro lugar.
  C(add9)  G/B
Y yo
Am7                 D/F#
no me acostumbro a mirar
    C(add9)  G/B  Am7
desde o - - tro
      D/F#
otro lugar.
G                  Em7                    C  D/F#
Siempre que entra... (siempre que entra...)
G                  Em7                    C  D/F#  G
Siempre que entra... (siempre que entra...)
Suggest correction
Give kudos to tab author, rate the tab!
1 2 3 4 5
comments
print report bad tab
guest
You may want to rate the tab now too:
select rating
Wanna post a correction for this tab? Suggest correction