Oops, an error
Loading. Please wait.

Que Necesitas tab

8 views 1 this week
no commentswrite comment
1 2 3 4 5
3 more votes to show rating
add to favorites
×
Save as Personal and add changes to this tab that will be seen only by you. Learn more ›
×
You can save this tab as Personal to edit and correct it or add notes. All changes will be seen only by you. Learn more »
launch autoscroll
font size
0
reset
how to read this tab
guitar tuner
edit
Autoscroll
slow
fast
+/-
esc
set tempo
stop
¿Qué necesitas?
Letra/Música: José Antonio Delgado

Sol      : 320003
Sol7      : 320001
Mim7      : 022030
Lam      : 002210
Do      : 032010
Re9/F#      : 200230
Mim      : 022000
Re      : 000232
Lam7      : 002213/002010
Sisus4      : x22202
Doadd9      : 032030


Introduccion

Cejilla 1                                            Mi9/Sol#
 SOL             SOL7  SOL             MIm7      Re9/F#      LAm7     DOadd9                SOL
|------------------------------3----------------0-------------------3-------------------------------3------------3-----
|-3--------3---3--1--1--0--------0---0--------3---------------1--------1--------3-3-3-3>2-0-----------0----0-------0---
|--------0-------------------0------0-------0-------2---2>4-------2-----0-----0-------------2-0---0------0---0-------0-
|------0-------------------0-------0------2---------------------2-----------2-------------------0--------------0-------
|---------------------------------------2---------------------0-----------3--------------------------------------------
|-3--3------------3-----3---------------------------2---2>4-----------------------------------3------------------------

 LAm7                    Re9/F#                    SI7sus4              MIm
|-------------------------------------0----------------------2-------2-|-0-------0>2-2--------2>3-3-------3>5-5-------5-
|-------0-1--3-1-0-----0--------3-----------3------------0---------0---|---0---0-------0---0--------0---0-------0---0---
|-----0------------2-0----2---2---2-----2-----2--------2---2-----2-----|-----0-----------0------------0-----------0-----
|---2-----------------------0-------0-----0-----0----2---------2-------|------------------------------------------------
|-0------------------------------------------------2-------------------|-2-----------2------------2---------------------
|-------------------------2--------------------------------------------|------------------------------------------------
                                                                         |-5>0 ---0--2--3|--3-3-2>0 2--3--5---           |-------3-----2-|
|--------1--3--3|----------3--3--5---            |-----0---0-----|
|--------0--0--0|----------0--0--0---            |---0-------0---|
|---------------|--------------------            |---------------|
|------3--------|--------------------            |-2-------------|
|---------------|--------------------            |---------------|
 -------------->                                 

SSOL7       SOL7(Re)     Sol
Hoy necesito un buen verso
       MIm7        LAm7
que conduzca mi canción
     DO              SOL
y que el amor sea el verbo
   LAm7         Re9/F#
y tus labios el motor.

SSOL7     SOL7(Re)   Sol
Hoy necesito un abrazo,
         MIm7        LAm7
ver tu rostro tranquilizador,
   DO                                 SOL
un par de acordes que no recuerden a Silvio,
  LAm7                          Re9/F#
y estar contento con lo que me toco.

       MIm    (Parte A)
Hoy necesito hallarte sentada en el parque
                          (Parte b)
esperando una caricia....de mi voz.

SOL      SOL7       SOL
Hoy necesito perderme
    MIm7                  LAm
y entre la gente diferenciar tu olor,
 DO                 SOL
sentir timidez al mirarte,
 LAm7                             Re9/F#
quedar dormido tras el arrullo de tu voz.

SSOL7     SOL7(Re)   Sol
Hoy necesito ser suspiro
MIm7                  LAm
y escaparme de tu boca veloz,
 DO                 SOL
y anidar sobre tu pecho abierto
 LAm7                             Re9/F#
y en la tarde...ser tu canción.

 MIm (Parte A)
Hoy necesito hallarme sentado en el parque
                                 (Parte b) Re
reinventando una caricia, sumandome a tu olor,
     (Parte a)
hoy necesito amarte lentamente y a cada instante

a los ojos mirarte y sentir que aún somos dos....
              (Parte A)    SOL
dando vida al amor.

            
            
Suggest correction
Creating personal tab
Creating personal tab
You can edit any tab online and save it as your Personal.

You can edit, replace or remove any tab part or add personal notes – all changes will be seen only by you.

Personal tabs can be accessed anytime from any device, even offline.
Learn more »
Give kudos to tab author, rate the tab!
1 2 3 4 5
comments
print report bad tab
guest
Wanna post a correction for this tab? Suggest correction