Oops, an error
Loading. Please wait.

Cuando Esté Lejos Tab

6 views 1 this week
no commentswrite comment
1 2 3 4 5
3 more votes to show rating
add to favorites
×
Save as Personal and add changes to this tab that will be seen only by you. Learn more ›
×
You can save this tab as Personal to edit and correct it or add notes. All changes will be seen only by you. Learn more »
save as personal
new!
launch autoscroll
font size
0
reset
how to read this tab
guitar tuner
Autoscroll
slow
fast
+/-
esc
set tempo
stop
Intro: A (en arpegio)

     A                  A
e||----0-----0-------|----0-----0------0--|
B||------2-----2---2-|------2-----2----2--|
G||--------2-----2---|--------2-----2--2--|
D||------------------|-----------------2--|
A||--5---------------|--5--------------5--|
E||------------------|--------------------|

Verso 1:
         A
En la calle en la casa
       E
donde puedas estar,
          A
en la sombra en la luz
         E
donde tu ánimo va.


CORO:
        D
Ten presente corazón
       A
que mi alma ahí estará
    E                       Bm   D
haciendote sentir todo mi amor.

        D
Ten presente que mi voz
      A
llegará a tu corazón
    E                    Bm   D
gritándome, gritándome amor.


Verso 2:
           A
Tal vez sola o con alguien
      E
como puedas estar
        A
en la luna en el sol
         E
donde tu ánimo va

           E?
CORO . . .Hey!

     ?E)
e||--4h5-5---------------------------|
B||---------7-7--5-5-----------------|
G||-------------------6-6--4-4s6--6--|
D||----------------------------------|
A||----------------------------------|
E||----------------------------------|

(Arpegio 1)
D? A Bm E

      D?
e||--4h5-5---------------------------|
B||---------7-7--5-5-----------------|
G||-------------------6-6--4-4s6--6--|
D||----------------------------------|
A||----------------------------------|
E||----------------------------------|

D A Bm E

Verso 1

CORO . . .Hey!

(Arpegio 2)
D A E Bm
D A E D A?

      ?A)
e||--4h5-5---------------------------|
B||---------7-7--5-5-----------------|
G||-------------------6-6--4-4s6--6--|
D||----------------------------------|
A||----------------------------------|
E||----------------------------------|

Y termina en A.

Nota: Dentro de los arpegios existen punteos; y el punteo que puse
después de cada arpegio en realidad terminan simultáneamente juntos.
Suggest correction
Give kudos to tab author, rate the tab!
1 2 3 4 5
comments
print report bad tab
guest
Wanna post a correction for this tab? Suggest correction