Oops, an error
Loading. Please wait.

Fantasma Tab

11 views 1 this week
no commentswrite comment
1 2 3 4 5
3 more votes to show rating
add to favorites
launch autoscroll
font size
0
reset
how to read this tab
guitar tuner
Autoscroll
slow
fast
+/-
esc
set tempo
stop
Help us to improve Ultimate-Guitar.com Take our survey!
×
Fantasma.- Una excelente canción, una mezcla de canción de cuna con trova
extraordinaria. Este es mi primer aporte al mundo de las partituras digita-
les en el mundo de la INTERNET (floro). Esta partitura no está al 100%
identica a la canción, por lo que yo consideraria con un 95%

INTRUCCIONES
+ Escucha la canción pa que te guies.
+ Los * bajo las partituras quieren decir que en vez del número
  va rasgueo (seguro la manyan)
+ Si los que solo quieren rasgueo les he puesto las notas al
  costado (pero mas chevere es punteando, oe k)

La secuencia es esta:
- La entrada es hasta ":)" osea (1,2,3,4) pero (1)
  va sin rasgueo.
- La trova va acompañada en cierto momento con la entrada
  pero tiene algo adicional osea el ADORNO y otros arpegios.
- Se repite la entrada pero ahora con los *, osea cuando dice: aaaaaaaa.
- Hay una parte de resentimiento que va acompañado con TRISTE.
- Termina con SALIDA FINAL (valga la redundancia)

ENTRADA
(1)
e||----------------------|-----3---||
B||-3-------3-2------2-0-|-------0-||
G||---2---------2--------|---------||
D||-0---0--------0-------|---------||
A||----------------------|-0-2-----||
E||----------------------|---------||
        *        *     *         *       (RE,LA,SOL,Bajo)
(2)
e||-------------2-2-|-----2---||
B||-2-2-2-0-0-----3-|-------0-||
G||---2-----2---2-2-|---------||
D||-2-2-----2-------|---------||
A||-----------------|-0-2-----||
E||-----------------|---------||
      *     *     *         *            (LA,LAsus2,RE,Bajo)
(3)
e||-2---2-2-0---2-0-3-3-3-3-|-------||
B||---3-3-----3-3-----0---0-|-------||
G||-----4-------4-----0---0-|-------||
D||-------------------0---0-|-------||
A||-------------------2---2-|-------||
E||-----------------3-3-3-3-|-3-2-0-||
        *       *     *   *              (SIm,SIm,SOL,SOL,Bajo)
(4)
e||-------0----------------1-||
B||---------0--------2-------||
G||-----------0--------2---2-||
D||---2------------2---------||
A||-2---2--------0-----------||
E||------------------------:)||
Esta parte va sin rasgueo (le pone feeling)

(5)
e||-3---3-----3-3--2-2---0-2-0-||
B||-----0-------0----3-3-------||
G||-----0-------0--2-2---------||
D||-----0-------0--------------||
A||-2---2-0-2---2--------------||
E||-----3-------3--------------||
        *       *    *
(6)
e||-----0-----2-2-||
B||-2-2---2-2---3-||
G||---2-----2-2-2-||
D||-2-2-----2-----||
A||---------------||
E||---------------||
      *     *   *    (LA,LA,RE)
(7)
e||-----0---||
B||-2-2---2-||
G||---2-----||
D||-2-2-----||
A||---------||
E||---------||
      *              (LA)
ADORNO
e||-2h3-2-0---||
B||---------3-||
G||-----------||
D||-----------||
A||-----------||
E||-----------||


TRISTE
e||-3-5-3--3-5-3-|-2-0---0--2-0---0-|  |---------1-||
B||--------------|-----3--------3---|  |-2-2-2-2---||
G||--------------|-2--------2-------|  |---2---2-2-||
D||--------------|------------------|x2|-2-2-2-2---||
A||--------------|------------------|  |-----------||
E||-3------3-----|------------------|  |-----------||
                     *   *                 *   *
/*-------------------------------------------------*/

TROVA 1:

Yo soy un fantasma
|-------(1)-------|

viajo a tu lado
|-----(2)-----|

Tú no puedes verme
|-------(5)-------|

pero estoy ahi.
|----(6)----| (ADORNO)

Y las veces que oyes
|-------(1)-------|

voces en tu alma
|------(2)------|

soy yo quien te habla
|--------(5)--------|

desde el corazón
|-----(6)-----| + lo último de (2) con Rasgueo

soy yo quien te llama
|--------(5)--------|

desde una cancioooooooon aaaaaaaa mmmmmmmm nnnnnnnn
|-------(7)-------||--Repite entrada (1,2,3,4) con todo y *)--|


TROVA 2:

Yo soy un fantasma
|-------(1)-------|

tengo muchos años
|------(2)------|

Tú eres una niña
|-----(5)-----|

Y te estoy cuidando
|-----(6)-----| + lo último de (2) con Rasgueo

Nadie te hará daño
|-------(5)-------|

Mientras yo esté aquíííííííí aaaaaaaa mmmmmmmm nnnnnnnn
|-------(7)-------||--Repite entrada (1,2,3,4) con todo y *)--|
                    ///OJO: en (4) termina un poco diferente

TROVA 3: (Acompañado de TRISTE)

Yo se que a veces quieres olvidar
Yo se que a veces tu pretendes ignorar
que estoy aquí, yo junto a ti

TROVA 4:

Pero no te asustes
|------(1)------|

soy solo un fantasma
|--------(2)--------|

Pronto amanece
|-----(5)-----|

Me tendré que ocultar
|-----(6)-----| + lo último de (2) con Rasgueo

Ahora mientras duermes
|---------(5)---------|

Intentaré marchar
|------(6)------| + lo último de (2) con Rasgueo

si cierras los ojos ya
|---------(5)---------|

me sentirás partir
|-------(7)-------||--Repite entrada (1,2,3) con todo y *)--| y ...

SALIDA LENTA
e||-------0--------------0------0h2----------0-||
B||---------0--------2-------2------2--------2-||
G||-----------0--------2--------0-----2------2-||
D||---2------------2--------------------2----2-||
A||-2---2--------0---------------------------0-||
E||------------------------------------------0-||  APLAUSOS!!!

Agradecimeintos:
1. A mi guitarra, jaja.
2. A Luis Ernesto(lewisthebad),que me pasó la canción, buena brother.
3. A Tritan y Pet3R por asesoramiento, jaja.

Saludos:
- A Yhenni =).
- A mi primo Wasther en Argentina.
- A MI código de LA UNPRG-EPCI-2003-II (Lambayeque).
- Y todos lo que conocen a este su servidor JunioRn Cachay Maco.

juniorn_hiv@ (para correciones, saludos, chistes, virus, etc)
Suggest correction
Give kudos to tab author, rate the tab!
1 2 3 4 5
comments
print report bad tab
guest
You may want to rate the tab now too:
select rating
Wanna post a correction for this tab? Suggest correction