Oops, an error
Loading. Please wait.

Candilejas Tab

237 views 6 this week
no commentswrite comment
1 2 3 4 5
3 more votes to show rating
add to favorites
launch autoscroll
font size
0
reset
how to read this tab
guitar tuner
×
Best way to learn
"Candilejas"
Autoscroll
slow
fast
+/-
esc
set tempo
stop
Es la introduccion "la verdadera" jeje suena bien pero
cualquier comentario duda o consejo a
 marcos_ag7@


       SI menor
E------------------------------------------------------------
A------------------------------------------------------------
D------------------------------------------------------------
G----------7------------7-----------7--------7---------------
B------7-----------7------------7--------7--------7-------7--
e--7----------9------------10---------9-------7---------9----


La mayor
E---------------------------------------------------------
A---------------------------------------------------------
D---------------------------------------------------------
G-------6-------6---------6---------6---------------------
B----5-------5--------5----------5-----------5-----5------
e-5-------7--------9---------7-----------5-------7--------

MI Mayor (4to traste)
E--------------------------------------------------------------
A--------------------------------------------------------------
D--------------------------------------------------------------
G-------4----------4-----------4------------4------------------
B----5----------5---------5-------------5-----------5-------5--
e-4---------5---------7-------------5-----------4--------7-----

La mayor
E--5--------------------------------------5--------------------
A--------------------------------------------------------------
D--------------------------------------------------------------
G--------6-------6--------6---------6---------6----------6-----
B-----5--------5--------5---------5---------5---------5--------
e--5---------5--------5---------5---------5---------5----------


ja suerte

am soi de xalapa


MI & ML  promesa eh
Suggest correction
Give kudos to tab author, rate the tab!
1 2 3 4 5
comments
print report bad tab
guest
You may want to rate the tab now too:
select rating
Wanna post a correction for this tab? Suggest correction