Oops, an error
Loading. Please wait.

Cuando Bass

11 views 1 this week
no commentswrite comment
1 2 3 4 5
3 more votes to show rating
add to favorites
×
Save as Personal and add changes to this tab that will be seen only by you. Learn more ›
×
You can save this tab as Personal to edit and correct it or add notes. All changes will be seen only by you. Learn more »
save as personal
new!
launch autoscroll
font size
0
reset
guitar tuner
Autoscroll
slow
fast
+/-
esc
set tempo
stop
Intro:
||-----5-(5/7\5)-|-----5----------||
||--------5/7\5--|--------0h2h5\4-||
||-3-------------|-3--------------||
||---------------|----------------||

1er Verso:
||-----5-(5/7\5)-|-----5----------||
||--------5/7\5--|--------0h2h5\4-||
||-3-------------|-3--------------|| x4
||---------------|----------------||

1er Coro:                                                  /-----------------------------x2||
||-----------|----------|---------------|----------|-------|----5-(5/7\5)-|-----5----------||
||-----------|----------|---------------|---2-3-5--|-5-3-2-|-------5/7\5--|--------0h2h5\4-||
||-0--0------|-0--0-----|---------------|-5--------|-------|3-------------|-3--------------||
||-------0--0|-------8--|-----(8)\3--3--|----------|-------|--------------|----------------||
   cuan..dooo  cuan..do suceda    mas     nos brill..el.....sol

2do Verso:
||-----5-(5/7\5)-|-----5----------||
||--------5/7\5--|--------0h2h5\4-||
||-3-------------|-3--------------|| x4
||---------------|----------------||

2do Coro:                                                  /-----------------------------x2||
||-----------|----------|---------------|----------|-------|----5-(5/7\5)-|-----5----------||
||-----------|----------|---------------|---2-3-5--|-5-3-2-|-------5/7\5--|--------0h2h5\4-||
||-0--0------|-0--0-----|---------------|-5--------|-------|3-------------|-3--------------||
||-------0--0|-------8--|-----(8)\3--3--|----------|-------|--------------|----------------||
   cuan..dooo  cuan..do suceda    mas     nos brill..el.....sol


3er Verso:
||-----5-(5/7\5)-|-----5----------||
||--------5/7\5--|--------0h2h5\4-||
||-3-------------|-3--------------|| x4
||---------------|----------------||

Ultimo Coro:                                                  
||-----------|----------|---------------|----------|-------|----5-(5/7\5)-|-----7----------|
||-----------|----------|---------------|---2-3-5--|-5-3-2-|-------5/7\5--|----------------|
||-0--0------|-0--0-----|---------------|-5--------|-------|3-------------|-5------5h7p5-3-|
||-------0--0|-------8--|-----(8)\3--3--|----------|-------|--------------|----------------|
   cuan..dooo  cuan..do suceda    mas     nos brill..el.....sol

|-------------|------|----5-(5/7\5)-|-----5---------|-----5-(5/7)|-(7/10)-||
|-------2-3-5-|-5-3-2|-------5/7\5--|-------0h2h5\4-|--------5/7-|--7/10--||
|-----5-------|------|3-------------|-3-------------|-3----------|--------||
|-3-----------|------|--------------|---------------|------------|--------||

Costa Rica - !!!!Tiquicia Rock¡¡¡¡

Cualquier comentario, correcion, duda ahi esta mi e-mail
Suggest correction
Give kudos to tab author, rate the tab!
1 2 3 4 5
comments
print report bad tab
guest
Wanna post a correction for this tab? Suggest correction