Oops, an error
Loading. Please wait.

El Barco Tab

73 views 1 this week
no commentswrite comment
1 2 3 4 5
3 more votes to show rating
add to favorites
launch autoscroll
font size
0
reset
how to read this tab
guitar tuner
×
Best way to learn
"El Barco"
Autoscroll
slow
fast
+/-
esc
set tempo
stop
Aqui está la intro de esta canción que para mí es una de 
las mejores. La mando hoy que murió este carismático 
rockero costarricense.
Hoy el rock tico esta en luto... 
Ahí esta la intro...
Mae Capmany... Nos vemos en el Cielo........


       Am  
e|---------------------------0------------------------|
B|-------------------0---1-------1----0----1----------|
G|---------------2------------------------------------|
D|-----------2----------------------------------------|
A|------0---------------------------------------------|
E|----------------------------------------------------|


e|----------------------------0-----------------------|
B|-------------------0---1----------------------------|
G|--------------2-------------------------------------|
D|----------2-----------------------------------------|
A|------0---------------------------------------------|
E|----------------------------------------------------|


e|---------------------------0------------------------|
B|-------------------0---1-------1----0----1----------|
G|---------------2------------------------------------|
D|-----------2----------------------------------------|
A|------0---------------------------------------------|
E|----------------------------------------------------|


e|----------------------------0-----------------------|
B|-------------------0---1----------------------------|
G|--------------2-------------------------------------|
D|----------2-----------------------------------------|
A|------0---------------------------------------------|
E|----------------------------------------------------|

      C     
e|--------------------0-------------------------------------------------------0--------|
B|------------1----------------1----------------------------------------------1--------|
G|--------0-------0--------0-------0------------------------------------------0--------|
D|----2----------------------------------(esto va varias veces y luego)-------2--------|
A|----------------------------------------------------------------------------3--------|
E|----------------------------------------------------------------------------x--------|


 
Nos despedimos cuando el sol aun marcaba la mañana
nos saludaban los pañuelos augurando el regreso
navegamos desafiando al agua, entre el horizonte y la montaña
pero yo nunca quise abordar el barco 

Soy un soldado un instrumento de mi raza de mi tierra
y como todos, tengo que luchar por mantener la idea
de ir a un lugar que no existe a demoler el muro que resiste
pero yo nunca quise abordar el barco. 

Pronto estuvimos cobijados por la noche y las estrellas
la inseguridad en el aire, nuestros ojos en las velas
los monstruos atacan nuestra nave que se estremece en la tormenta
pero yo nunca quise abordar el barco. 

Al fin hundimos nuestros pies y manos en el suelo extraño
la sensacion de triunfo transmutandose en extrañeza
algunos volvieron en el barco, otros nos fundimos con la tierra,
pero yo nunca quise abordar el barco. 


Cualquier comentario: mariovega@
**************************************************
Suggest correction
Give kudos to tab author, rate the tab!
1 2 3 4 5
comments
print report bad tab
guest
You may want to rate the tab now too:
select rating
Wanna post a correction for this tab? Suggest correction