Oops, an error
Loading. Please wait.

Motivos Tab

version 1
version 1

Whole song

77 views 1 this week
no commentswrite comment
1 2 3 4 5
3 more votes to show rating
add to favorites
×
Save as Personal and add changes to this tab that will be seen only by you. Learn more ›
×
You can save this tab as Personal to edit and correct it or add notes. All changes will be seen only by you. Learn more »
save as personal
new!
launch autoscroll
font size
0
reset
how to read this tab
guitar tuner
Autoscroll
slow
fast
+/-
esc
set tempo
stop
El intro se toca dos veces y si lo hacen con dos guitarras se
Escucha mas padre una que lleve acompañamiento y la otra el
Requinto.  requinto es lo que hace el teclado
           A                         E                      A
E -------------------------------------------------------------
A -------------------------------------------------------------
D ---------4--2------------2--------------4--2-------------2---
G ----2---------2-2-2-2-1------------4----------2-2-2-2-1------
B --2---2---------------------3-3--3----3---------------------2-2-
E -------------------------------------------------------------

A
Yo solo quise querer
                  E
Yo solo quise quererte

Yo nada te pude dar
                  A
Yo nada pude ofrecerte

A
Solo quería tu vida
                 E
Para vivirla contigo

Quisiera darte mi vida
                    A - A7
Que la vivieras conmigo

                  D
Quise motivar tu vida
                  A
Quise motivar tu vientre
                 E
Quise motivarte toda
                 A    A7
Quise motivarte siempre

                      D
Quise com nuestros motivos
                 A
Motivar tiempos nuestros
                E
Y que motivo a motivo
                    A
Nasce asi um motivo nuevo

           A                         E                      A
E -------------------------------------------------------------
A -------------------------------------------------------------
D ---------4--2------------2--------------4--2-------------2---
G ----2---------2-2-2-2-1------------4----------2-2-2-2-1------
B --2---2---------------------3-3--3----3---------------------2-2-
E -------------------------------------------------------------

A
Quiero que tu me amanezcas
                      E
Quiero que tu me trasnoches

Quiero que tu me hagas tuyo
                     A
Quiero que tu me derroches

A
Solo quería tu vida
                 E
Para vivirla contigo

Quisiera darte mi vida
                   A
Que la vivieras conmigo

                  D
Quise motivar tu vida
                  A
Quise motivar tu vientre
                 E
Quise motivarte toda
                 A    A7
Quise motivarte siempre

                      D
Quise com nuestros motivos
                 A
Motivar tiempos nuestros
                E
Y que motivo a motivo
                    A
Nasce asi um motivo nuevo

           A                         E                      A
E -------------------------------------------------------------
A -------------------------------------------------------------
D ---------4--2------------2--------------4--2-------------2---
G ----2---------2-2-2-2-1------------4----------2-2-2-2-1------
B --2---2---------------------3-3--3----3---------------------2-2-
E -------------------------------------------------------------
 Y en el final lo hacen varias veces haciendo que el sonido se
valla perdiendo, esta rola va para mi Princesa
Suggest correction
Give kudos to tab author, rate the tab!
1 2 3 4 5
comments
print report bad tab
guest
Wanna post a correction for this tab? Suggest correction