Oops, an error
Loading. Please wait.

Motivos Tab

version 2
version 2

Whole song

13 views 1 this week
no commentswrite comment
1 2 3 4 5
3 more votes to show rating
add to favorites
launch autoscroll
font size
0
reset
how to read this tab
guitar tuner
Autoscroll
slow
fast
+/-
esc
set tempo
stop
Help us to improve Ultimate-Guitar.com Take our survey!
×
Intro   Riff 1  (3)

Riff 1
   A6               A               A6                  E7
e--2-----2-----2----0-----0-----0----2-----2-----2----0-----0-----0---
B----2-----2-----2----2-----2-----2----2-----2-----2----3-----3-----3-
G------2-----2----------2-----2----------2-----2----------1-----1-----
D---------------------------------------------------------------------
A--0----------------0----------------0--------------------------------
E-----------------------------------------------------0---------------

   E9               E7               E9              A
e--2-----2-----2----0-----0-----0----2-----2-----2----0-----0-----0---
B----3-----3-----3----3-----3-----3----3-----3-----3----2-----2-----2-
G------1-----1----------1-----1----------1-----1----------2-----2-----
D---------------------------------------------------------------------
A-----------------------------------------------------0---------------
E--0----------------0----------------0--------------------------------

ESTROFA I (Riff 1)
Yo solo quise querer,
yo solo quise, quererte,
yo nada te pude dar,
yo nada pude ofrecerte.

ESTROFA II (Riff 1)
Solo quería tu vida,
para vivirla contigo,
quisiera darte mi vida,
que la vivieras conmigo.

Riff 2
  A6   A7*         D                Dm               A
e-2-----3-----3----2-----2-----2----1-----1-----1----0-----0-----0----0--
B---2-----2-----2----3-----3-----3----3-----3-----3----2-----2-----2--2--
G-----2-----2----------2-----2----------2-----2----------2-----2------2--
D------------------0-----------------------------------------------------
A-0---------------------------------0----------------0----------------0--
E------------------------------------------------------------------------

  Bm7    E7        Bm7    E7         A
e--2-----4-----4----2-----4-----4----0-----2-----0-----0-----
B----3-----3-----3----3-----3-----3----2-----2-----2---2-----
G------2-----4----------2-----3----------2-----2-------2-----
D------------------------------------------------------------
A--2----------------2----------------0-----------------0-----
E--------0----------------0----------------------------------

CORO (Riff 2)
Quise motivar tu vida,
quise motivar tu vientre,
quise motivarte toda,
quise motivarte siempre.

(Riff 2)
Quise con nuestros motivos,
motivar un tiempo nuestro,
y que motivo a motivo,
naciese un motivo nuevo.


Riff 3
   A               A6                E7                E9
e--0-----0-----0----2-----2-----2----0-----0-----0-----2-----2-----2--
B----2-----2-----2----2-----2-----2----3-----3-----3-----3-----3-----3
G------2-----2----------2-----2----------1-----1-----------1-----1----
D---------------------------------------------------------------------
A--0----------------0-------------------------------------------------
E------------------------------------0-----------------0--------------

   E7               E9               A                A6
e--0-----0-----0----2-----2-----2----0-----0-----0----2-----2-----2---
B----3-----3-----3----3-----3-----3----2-----2-----2----2-----2-----2-
G------1-----1----------1-----1----------2-----2----------2-----2-----
D---------------------------------------------------------------------
A------------------------------------0----------------0---------------
E--0----------------0-------------------------------------------------

Inter  Riff 3  (2)

ESTROFA III (Riff 1)
Quiero que tú me amanezcas,
quiero que tú me trasnoches,
quiero que tú me hagas tuyo,
quiero que tú me derroches.

ESTROFA II

CORO

FINAL   Riff 3  (2)
Suggest correction
Give kudos to tab author, rate the tab!
1 2 3 4 5
comments
print report bad tab
guest
You may want to rate the tab now too:
select rating
Wanna post a correction for this tab? Suggest correction