Oops, an error
Loading. Please wait.

Feliz Navidad Tab

version 1
version 1

Whole song

Interactive

Video

2,049 views 1 this week
no commentswrite comment
1 2 3 4 5
x 15
add to favorites
launch autoscroll
font size
0
reset
how to read this tab
guitar tuner
×
Best way to learn
"Feliz Navidad"
Autoscroll
slow
fast
+/-
esc
set tempo
stop
Hay les dejo esta rola esta chida

Saludos para toda la raza de Aguascalientes
Especialmente para todos los de ''Calvillo''


e|-------------|----0--------|--------------------------------------------|
B|----3-2-3-0--|--0---3-0----|----3-2-3-0---0-0-----0---------------------|
G|--2----------|----------2--|--2---------0-----2-2---2-0-0---------------|
D|-------------|-------------|------------------------------4(4)----------|
A|-------------|-------------|--------------------------------------------|
E|-------------|-------------|--------------------------------------------|

e|-------------|----0--------|--------------------------------------------|
B|----3-2-3-0--|--0---3-0----|----3-2-3-0---0-0-----0---------------------|
G|--2----------|----------2--|--2---------0-----2-2---2-0-0---------------|
D|-------------|-------------|------------------------------4(4)----------|
A|-------------|-------------|--------------------------------------------|
E|-------------|-------------|--------------------------------------------|

e|--2-2-2-2-0------------|--0-0-0-0--------------|
B|------------3-3-0-0-3--|----------3-0-0--------|
G|-----------------------|----------------2-1-2--|
D|-----------------------|-----------------------|
A|-----------------------|-----------------------|
E|-----------------------|-----------------------|

e|--2-2-2-2-0-----------0--------------------|--2-2-2-2-0-----------------|
B|------------3-3-0-0-0---3-2-2-3-5-5/75-3--|------------3-3-0---0-------|
G|-------------------------------------------|------------------3---------|
D|-------------------------------------------|----------------------------|
A|-------------------------------------------|----------------------------|
E|-------------------------------------------|----------------------------|

e|--0-0-0-0--------------|--2-2-2-2-0-----------0-------------------------|
B|----------3-0-0--------|------------3-3-0-0-0---3-2-2-3-5-5/75-3-------|
G|----------------2-1-2--|------------------------------------------------|
D|-----------------------|------------------------------------------------|
A|-----------------------|------------------------------------------------|
E|-----------------------|------------------------------------------------|
Suggest correction
comments
print report bad tab
guest
You may want to rate the tab now too:
select rating
Wanna post a correction for this tab? Suggest correction