Oops, an error
Loading. Please wait.

La Cárcel De Sing-Sing Tab

65 views 1 this week
no commentswrite comment
1 2 3 4 5
3 more votes to show rating
add to favorites
launch autoscroll
font size
0
reset
how to read this tab
guitar tuner
Autoscroll
slow
fast
+/-
esc
set tempo
stop
Help us to improve Ultimate-Guitar.com Take our survey!
×
Intro: MIm-MIm -MIm6-MIm  (x2)

Ayer yo visité la cárcel de Sing Sing
         MIm
y en una de sus celdas solitarias
     MI7                     LAm
un hombre se encontraba arrodillado al redentor
                              MIm
piedad, piedad de mí, mi gran señor  D---0------------
 DO                            SI7   A------2-1-0-----
                                     E-------------0--


Más cuando me miró a mí se abalanzó
      MIm
y con voz temblorosa entrecortada
  MI7                         LAm
escucha triste hermano esta horrible confesión
                              MIm
aquí yo condenado a muerte estoy
 DO        SI7             MIm    D--------2-
                                  A-----2----
                                  E--3-------

Yo tuve que matar a un ser que quise amar
    MIm
y aunque aún estando muerta yo la quiero
    MI7                             LAm
al verla con su amante a los dos los maté
                             MIm
por culpa de esa infame moriré
DO                 SI7    MIm  D--------2-
                               A-----2----
                               E--3-------


Minutos nada más me quedan ya pa' respirar
RE                            SOL
la silla lista está, la cámara también
    SI7                  MIm
a mi pobre viejita que desesperada está
  FA                       MIm
entregúele este recuerdo de mí.
    DO             SI7       MIm  G--5-4-2-0-------
                                  D-----------4--2-
                                  A----------------
                                  E----------------

Yo tuve que matar a un ser que quise amar
    MIm
y aunque aún estando muerta yo la quiero
    MI7                             LAm
al verla con su amante a los dos los maté
                             MIm
por culpa de esa infame moriré
DO                 SI7    MIm  D--------2-
                               A-----2----
                               E--3-------

                                                  ********Solo********
e----0-2-3-0---0-2-3-0--0-2-3-2-3-3/7-7--7-7--5-5--5-8-7-5-8-7-7--5-8-
B------------4--------------------------------------------------------
G---------------------------------------------------------------------
D---------------------------------------------------------------------
A---------------------------------------------------------------------
E-0-------------------------------------------------------------------


e-7-5-8-5--5-7-5-7-5-8--8--7-5-7-8--10-8--7-5--7-3-3-5-7-8--7-5-3--5-2-
B----------------------------------------------------------------------
G----------------------------------------------------------------------
D-----------------------10-9-7-9-10-12-10-9-7--9-5-5-7-9-10-9-7-5--7-4-
A----------------------------------------------------------------------
E----------------------------------------------------------------------


e-2-3-5-7-5-3-2-0----------------
B--------------------------------
G------------------5-4-2-0-------
D-4-5-7-9-7-5-4--------------4-2-
A--------------------------------
E--------------------------------

Minutos nada más me quedan ya pa' respirar
RE                            SOL
la silla lista está, la cámara también
    SI7                  MIm
a mi pobre viejita que desesperada está
  FA                       MIm
entregúele este recuerdo de mí.
    DO             SI7       MIm  G--5-4-2-0-------
                                  D-----------4--2-
                                  A----------------
                                  E----------------


Yo tuve que matar a un ser que quise amar
    MIm
y aunque aún estando muerta yo la quiero
    MI7                             LAm
al verla con su amante a los dos los maté
                             MIm
por culpa de esa infame moriré
DO                 SI7    MIm  D--------2-
                               A-----2----
                               E--3-------


por culpa de esa infame moriré
DO                 SI7    MIm     G--5-4-2-0-------
                                  D-----------4--2-
                                  A----------------
                                  E----------------


bY FELIX Z
Suggest correction
Give kudos to tab author, rate the tab!
1 2 3 4 5
comments
print report bad tab
guest
You may want to rate the tab now too:
select rating
Wanna post a correction for this tab? Suggest correction