Oops, an error
Loading. Please wait.

Será Por Eso Tab

31 views 1 this week
no commentswrite comment
1 2 3 4 5
3 more votes to show rating
add to favorites
×
Save as Personal and add changes to this tab that will be seen only by you. Learn more ›
×
You can save this tab as Personal to edit and correct it or add notes. All changes will be seen only by you. Learn more »
save as personal
new!
launch autoscroll
font size
0
reset
how to read this tab
guitar tuner
Autoscroll
slow
fast
+/-
esc
set tempo
stop
INTRO:


E--0-----------|--0-------------|--0-----------|---|
A----7-8-7-5-7-|----7-8-7-5-7-4-|----7-8-7-5-7-|-1-|
D--------------|----------------|--------------|-3-|
G--------------|----------------|--------------|-3-|
B--------------|----------------|--------------|---|
e--------------|----------------|--------------|---|

DESDE AKEL DIA ME TREJERON PARA AKA

E---------
A---------
D---------
G---------
B--3-5/7-5
e---------

SERA POR KE NO ME DEJABA RASURAR

E---------
A---------
D---------
G---------
B--3-5/7/9
e---------

YA NO ME HABLAN NISIKIERA LAS HORMIGAS...

E---------
A---------
D---------
G---------
B--3-5/7-5
e---------

-----------------------------------------------------------------

POR ESO

E-0-2-3---
A---------
D---------
G---------
B---------
e---------

ME PONGO UN SACO

E-0-0-3-3-2-
A-----------
D-----------
G-----------
B-----------
e-----------

TOMO LA NAVAJA

E-0-0-3-3-2-
A-----------
D-----------
G-----------
B-----------
e-----------

Y SALGO A CLAVAR...

E-----------
A--1---1----
D--3---3----
G--3---3----
B-----------
e-----------

SERA POR ESO KE NO ME DEJAN SALIR, SERA POR ESO KE ME DAN ELECTROSHOKS

E---------------------
A---------------------
D--0---------0--------
G-----5*/7-----7*/9-5-    ESTO SE REPITE UN CHINGO DE VECES
B---------------------
e---------------------

------------------------------------------------------------------------
EL_GARIGOL_NO_HA_MUERTO@ 
Suggest correction
Give kudos to tab author, rate the tab!
1 2 3 4 5
comments
print report bad tab
guest
Wanna post a correction for this tab? Suggest correction