Oops, an error
Loading. Please wait.

Agridulce Chords

73 views 1 this week
no commentswrite comment
1 2 3 4 5
3 more votes to show rating
add to favorites
launch autoscroll
font size
0
reset
transpose
0
reset
display chords
guitar tuner
×
Best way to learn
"Agridulce"
Autoscroll
slow
fast
+/-
esc
set tempo
stop
(0)
G,           D,        Am,          C.
--------------------------------------------e
--8-7------8-7-----8-7-------------7-8------b
-------7--------7-------7-----7--9-----7----g
----------------------------9---------------d
--------------------------------------------a
--------------------------------------------E

(I)
-------------------------------e
-----1p0-1p0-------------------b
--0----------------------------g
-------------------------------d
-------------------------------a
-------------------------------E

(II)
-5h7p5--5h7p5--5h7p5---3-2-0-0h2p0-5h7p5-5h7p5-5h7p5----3--5--10e
------3------3-------3------------3-----3-----3------3-3--3--3--b
----------------------------------------------------------------g
----------------------------------------------------------------d
----------------------------------------------------------------a
----------------------------------------------------------------E


(0) x 2
(II)

G        D                   Am                     C (I)
Con la certeza de que el tiempo de las lágrimas ya vuelve
G     D               Am               C (I)
El día se despide con un rayo agónico de luz
G        F               Am               C
Violácea que se hunde en las nubes y las hiere
Am         D    Am       D
De incandescencia e incertidumbre
Am        D            G
Y hace agridulce la emoción


G     D                  Am               C (I)
Y antes de que la esperanza se diluya lentamente
G      D                   Am             C (I)
Iré a asomarme a las ventanas imposibles del ayer
G       F                   Am                      C
Con la sonrisa que el dolor nos roba en los atardeceres
Am       D    Am         D
De incandescencia e incertidumbre
Am        D                G
Que hace agridulce al emoción

G     D                Am           G   [C-SOL][C-SOL]
Con la incandescencia que nos regala el sol
G      D                Am            G
Con la incertidumbre que el viento nos dejó
C     G
La emoción
C     G
La emoción
D, C, Bm, Am
aahahahhahaahaha [x3]
(Se hace agridulce la emoción)

Solo [G, D, Am, C].

G    D                  Am                      C
En ese limbo en el que la memoria guarda las derrotas
G     D                      Am                 C
En la penumbra en la que quedan esos sueños sin cumplir
G       F             Am                      C
Te esperaré cuando estén escanciadas nuestras copas
Am        D    Am           D
De incandescencia e incertidumbre
Am          D              G
Y se haga agridulce la emoción?


Suggest correction
Give kudos to tab author, rate the tab!
1 2 3 4 5
comments
print report bad tab
guest
You may want to rate the tab now too:
select rating
Wanna post a correction for this tab? Suggest correction