Oops, an error
Loading. Please wait.

No Digas Que No Te Avisé Chords

25 views 1 this week
no commentswrite comment
1 2 3 4 5
3 more votes to show rating
add to favorites
launch autoscroll
font size
0
reset
transpose
0
reset
simplify chords
display chords
guitar tuner
Autoscroll
slow
fast
+/-
esc
set tempo
stop
Help us to improve Ultimate-Guitar.com Take our survey!
×
Mi5i, Si5, Mi5i, Lam, Mi5, Mi5*


E5        B5             E5
Querrán venderte falsos mapas
E5   A5       E5
de caminos al edén
E5            B5          E5
Recetas de esperanza caducadas
E5  A5     E5
paraísos de papel


C#m             G#m
Te dejarán que grites
A                  E
para que pierdas la voz
C#m            G#m
que pidas imposibles
A                     B
y que recojas las migajas

C#m    G#m      E      A
Te harán creer que así es la vida
E      A      B A              E
no digas, no digas, que no te avisé


E5        B5             E5
Querrán venderte unos zapatos
E5         A5        E5 MI5*
con los que no puedas correr
E5            B5              E5
que firmes de por vida un contrato
E5      A5            E5
que te oblige a obedecer


C#m             G#m
Con calles sin salida
A             E
te dejarán soñar
C#m               G#m
con un par de aspirinas
A                 B
curarás tu desencanto

C#m    G#m      E      A
Te harán creer que así es la vida
E      A      B A              E
no digas, no digas, que no te avisé

[Solo]

C#m             G#m
Te dejarán que grites
A                   E
para que pierdas la voz
C#m            G#m
que pidas imposibles
A                     B
y que recojas las migajas

C#m    G#m      E      A
Te harán creer que así es la vida
E      A     B A              E
no digas, no digas, que no te avisé

B      A               E
no digas, que no te avisé ...


------------------
------------------
---------1--------  >>> Mi5
---------2--------
------------------
------------------

------------------
------------------
------------------  >>> Mi5i
---------2--------
---------2--------
------------------

------------------
------------------
---------2------- >>>> La5
---------2--------
------------------
------------------

------------------
---------1--------
---------2--------  >>> Lam
------------------
------------------
------------------

------------------
------------------
---------4-------  >>> Si5
---------4------
------------------
------------------

------------------
------------------
---------9------- >>> Mi5*
---------9-------
------------------
------------------


Suggest correction
Give kudos to tab author, rate the tab!
1 2 3 4 5
comments
print report bad tab
guest
You may want to rate the tab now too:
select rating
Wanna post a correction for this tab? Suggest correction