Oops, an error
Loading. Please wait.

Almohada Tab

1,020 views 9 this week
no commentswrite comment
1 2 3 4 5
1 last vote to show rating
add to favorites
×
Save as Personal and add changes to this tab that will be seen only by you. Learn more ›
×
You can save this tab as Personal to edit and correct it or add notes. All changes will be seen only by you. Learn more »
save as personal
new!
launch autoscroll
font size
0
reset
how to read this tab
guitar tuner
Autoscroll
slow
fast
+/-
esc
set tempo
stop
Intro:

A#m7/9,A#m7,D#7sus4,D#7,Cm7/9,Cm7,F7sus4,F7
Dm7/9,Dm7.G7sus4,G7 y termina en Am  (lleva esos acordes pero
el orden tienen que checarlo ustedes con la cancion y
con el punteo que esta abajo, aqui no lo pongo del todo
porque se me hace mucho relajo y amontonadero)

E|------------------------------------------------|
A|------------------------------------------------|
D|------------------------------------------------|
G|------------------------------------------------|
B|------------------------------------------------|
e|-8--7--5--3----3-5-7-8---10--8--7--5--5-7-8-10--|

                       Am7add9  Am7
E|--------------------------5---5|
A|--------------------------7---7|
D|--------------------------5---5|
G|--------------------------5---5|
B|--------------------------5---5|
e|-12--10--8-7---8-7-5-4-5--7---5|


 Am7         Dm7    G7
Amor como el nueeeestro
                 Dm7 G7
no hay dos en la viiidaaaaa
               Cmaj7  Am
por más que se buuuuusque
    Amadd9       Am
por más que se esconda

   Am7        Dm7   G7
Tú duermes conmiiiiigo
            Dm7   G7
toditas las nooocheeeeees
            Cmaj7  Am
te quedas callaaaaada
       Amadd9   Am
sin ningún reproche

    Am/B   E7
Por eso te quiero
    E7sus4  E7
por eso te adoro
    E7*           Am
yyy-tu eres en mi vida
Amadd9    Am
todo mi tesoro

   Am7      Dm7  G7
AAAveces regreeeeso
              Dm7   G7
borracho de anguustiaaaaaaaaa
            Cmaj7  Cmaj7sus2
te lleno de beeeeeesos
              Am
y caricias mustias

  Am7         Dm7   G7
Pero estás dormiiiiida
             Dm7  G7
no sientes cariiciaaaaaaaaas
    G7*        Cmaj7
te abrazo a mi pecho
   Cmaj7sus4    Am
me dueeeermo contigo
    Am7         Dm7
más luego despierto
        E7sus4  E7
tú no estás conmigo
       E7*          Am
sólo estaaaaá mi almohada


  Am7       Dm7  G7
AAveces te miiiiiro
            Dm7 G7
callada y ausenteeeeeeee
    Cmaj7       Am
y sufro en silencio
     Amadd9   Am
como tanta gente
   Am7      Dm7    G7
Quisiera gritaaaaarte
               Dm7 G7
que vuelvas conmiiigooooo
             Cmaj7   Am
que si aun estoy   vivo
     Amadd9      Am
sólo es para amarte
      Am/B  E7
Pero todo pasa
  E7sus4         E7
y a los sufrimientos
      E7*    Am
como a las palabras
       Amadd9       Am
se las lleva el viento
    Am7   Dm7  G7
Por eso regreeeso
              Dm7  G7
borracho de angustiaaaa
            Cmaj7  Cmaj7sus2
te lleno de beeeeeesos
           Am
y caricias mustias
  Am7         Dm7  G7
pero estas dormiiiida
             Dm7  G7
no sientes cariiiciaaaas
    G7*        Cmaj7
te abrazo a mi pecho
   Cmaj7sus4  Am
me duermo  contigo
Am7          Dm7
mas luego despierto
        E7sus4   E7
tu no estas conmigo
       E7*       Am
solo esta mi almohada.

FIN

para que no exista ningun pretexto
aqui pongo los acordes que talvez
no sepan como se tocan.

Acordes

  Amadd9   Am/B   Cmaj7  Cmaj7sus2  Cmaj7sus4  E7sus4  E7  E7*
E|-0--------0-------0------0-----------0---------0-----0---0---|
A|-0--------2-------3------3-----------3---------2-----2---2---|
D|-2--------0-------2------0-----------2---------0-----0---0---|
G|-4--------2-------0------0-----------0---------2-----1---1---|
B|-1--------1-------0------0-----------0---------0-----0---3---|
e|-0--------0-------0------0-----------1---------0-----0---0---|


Asi se tocan con cejilla:

  Amadd9   Am/B   Cmaj7  Cmaj7sus2  Cmaj7sus4   E7sus4  E7   E7*  G7  G7*
E|---5------7-------3------3------------3----------7-----7----7---3---3--|
A|---7------7-------3------3------------3----------7-----7----7---5---5--|
D|---9------7-------5------5------------5----------9-----9----9---3---3--|
G|---5------5-------4------4------------4----------7-----7----7---4---4--|
B|---5------5-------5------3------------6----------10----9----9---3---6--|
e|---5------5-------3------3------------3----------7-----7----10--3---3--|

Este acorde (E7*) no es un acorde raro,
es en sus componentes un Mi séptima comun
y corriente pero tocado de otro modo y por eso le
puse el asterisco para que lo diferencien del otro E7,
como se darán cuenta lo que hace es resaltar el "RE"
al poner el meñique en el tercer traste de la segunda
cuerda, o en caso de la cejilla el décimo traste
en la primer cuerda,y bueno con el G7* (en este solo
se puede con cejilla, ni hablar) y G7 pasa exactamente
lo mismo y vale la pena utilizar los dos si es que
quieren sonar como en el disco.

jeje si no les sale es porque aun necesitan practicar,
(esta cancion si la practican un poquito no esta dificil
de tocar) y no se aloquen ni siquiera intenten corregirla
porque esta tab es perfecta y si van a poner una
calificacion analicen bien la tab y que sea 10.
es que en buena onda no inventen luego mandan y
califican cada cosa ...

ok, saludos cordiales

Y claro: ¡VIVA EL ROCK!
Suggest correction
Give kudos to tab author, rate the tab!
1 2 3 4 5
comments
print report bad tab
guest
Wanna post a correction for this tab? Suggest correction