Oops, an error
Loading. Please wait.

El Mundo Chords

50 views 1 this week
no commentswrite comment
1 2 3 4 5
2 more votes to show rating
add to favorites
launch autoscroll
font size
0
reset
transpose
0
reset
display chords
guitar tuner
Autoscroll
slow
fast
+/-
esc
set tempo
stop
Strumming
There is no strumming pattern for this song yet. and get +5 IQ
UNA CANCION SENCILLA, PERO MUY BUENA, ES UNA FORMA
PERSONAL DE TOCARLA
SUENA BIEN.

e|--------------------------------------
B|--------------------------------------
G|-2-3-2-3-2-3-2-3-2-3-2-3-2-3-2--------
D|--------------------------------------
A|--------------------------------------
E|--------------------------------------


e|-0-----------0---------0----------0-------
B|-1--------1----1----1-----0-------1-------
G|-0-----0---------0-----------0----2-------
D|-2--------------------------------2-------
A|-3--------------------------------0-------
E|-0--------------------------------0-------
NO EN ESTA NOCHE YA NO PIENSO AMOR EN TI

e|--------0----------0-----------1------
B|-----1----1-----1-----1--------1------
G|---2--------2-----------1------2------
D|-2------------------------2----3------
A|-------------------------------3------
E|-------------------------------1------
ABRI LOS OJOS SOLAMENTE PARA VER

e|----------1-----------1-------------3-
B|--------1----1-----1-----1-----1----0-
G|-----2---------2------------2-------0-
D|--3---------------------------------0-
A|------------------------------------2-
E|------------------------------------3-

                                             G
SI EN TORNO A MI GIRABA EL MUNDO COMO SIEMPRE
C
GIRA EL MUNDO GIRA EN SU ESPACIO INFINITO
                     Am
CON AMORES QUE COMIENZAN CON AMORES QUE TERMINAN
         F                                G
CON LAS PENAS Y ALEGRIAS DE OTRA GENTE COMO YO
  C                             Am
HO MUNDO POR ESO AHORA YO TE MIRO
                           F
Y EN TU SILENCIO YO ME PIERDO
                          G
Y NO SOY NADA AL VERTE A TI
 C                                       Am
EL MUNDO,QUE NO HA PARADO NI UN MOMENTO
                           F
SU NOCHE MUERE Y VIENE EL DIA
        G
Y ESE DIA ME VERAS
    C     Am    F   G  C  Am  F   G
HOO MUNDO

 C                                    Am
EL MUNDO QUE NO HA PARADO NI UN MOMENTO
                           F
SU NOCHE MUERE Y VIENE EL DIA
             G
Y ESE DIA,  ME VERAS


BUENO SIMPLEMENTE LES ENCARGO SU CALIFICACION AQUI
EN EL ENLACE QUE ESTA ARRIBA DONDE DICE (CALIDAD),
A UN LADO DE TEXTO
DEDICADA PARA TI LETY, ESPERO QUE EL CAMINO QUE ELEGISTE
SEA EL CORRECTO Y EL QUE TE CONDUZCA A LA FELICIDAD
TU AMIGO QUE SIEMPRE TE APOYA Y TE QUIERE.
Suggest correction
Give kudos to tab author, rate the tab!
1 2 3 4 5
comments
print report bad tab
guest
Wanna post a correction for this tab? Suggest correction