Oops, an error
Loading. Please wait.

Hoy Te Esperaré (Hoy Me Esperarás) Chords

5 views 1 this week
no commentswrite comment
1 2 3 4 5
3 more votes to show rating
add to favorites
launch autoscroll
font size
0
reset
transpose
0
reset
simplify chords
display chords
guitar tuner
Autoscroll
slow
fast
+/-
esc
set tempo
stop
Help us to improve Ultimate-Guitar.com Take our survey!
×
Mi canción favorita de José José.
Lanzada en el álbum Tesoros en 1997, pero la canción fue escrita
en 1980. Me gusta la onda de la balada tipo Sinatra. Espero les
guste y les sirva.


(Intro)

e. ---------------1-3------|------------------------|
B. -----------3-4-----1-1~-|---------------3-4-3-3~-|
G. -----2-3-5--------------|-------2-2-3-5----------|
D. -3-5--------------------|-3-5-5------------------|
A. ------------------------|------------------------|
E. ------------------------|------------------------|


 A#          Cm
Hoy me esperarás
 F7               A#
sola en nuestro hogar
 Gm            Cm        F7
hoy a todo el mundo apartarás
         Dm         Gm
y las cortinas cerrarás
      F7           A#
tu intimidad me robaré.


A#                Cm
Hoy no habrá mas luz
F7                  A#
que la de aquel quinquel
Gm             Cm        F7
hoy cuando te diga ya llegué
         Dm      Gm
de prisa te desnudaré
         F7          Dm    Gm
y no se oirá mas suspirar
              Cm  F7      A#
que el de tu amor y mi pasión.


e. ---------------1-3------|------------------------|
B. -----------3-4-----1-1~-|---------------3-4-3-3~-|
G. -----2-3-5--------------|-------2-2-3-5----------|
D. -3-5--------------------|-3-5-5------------------|
A. ------------------------|------------------------|
E. ------------------------|------------------------|


A#                Cm
Hoy no habrá mas luz
F7                  A#
que la de aquel quinquel
Gm             Cm        F7
hoy cuando te diga ya llegué
         Dm      Gm
de prisa te desnudaré
         F7          Dm    Gm
y no se oirá mas suspirar
              Cm  F7      A#
que el de tu amor y mi pasión.


(Outro)
                      A#
e. ----6-5----------------6~-|
B. -6~-------------8-----6---|
G. --------7-5~--8------7----|
D. --------------------8-----|
A. -------------------8------|
E. ------------------6-------|


No hay dedicatoria para esta (sniff) pero está especial para
tocarsela a alguna mujer. Si tienen alguna duda o comentario
favor de enviarme un mail a la dirección de arriba. Paz hermanos!
Suggest correction
Give kudos to tab author, rate the tab!
1 2 3 4 5
comments
print report bad tab
guest
You may want to rate the tab now too:
select rating
Wanna post a correction for this tab? Suggest correction