Oops, an error
Loading. Please wait.

Infiel Tab

18 views 1 this week
no commentswrite comment
1 2 3 4 5
3 more votes to show rating
add to favorites
launch autoscroll
font size
0
reset
how to read this tab
guitar tuner
Autoscroll
slow
fast
+/-
esc
set tempo
stop
Help us to improve Ultimate-Guitar.com Take our survey!
×
Por Berluismz.
Intro:
  C
|-0-----3-----0--------------------------0--5--0-----------0--5--0--
|---1-----1------3---------0--------3-------------1-----1-----------
|-----0-----0-------0---------0--------0-------------0--------------  X  2
|----------------------2---------2----------------------------------
|-3-----3-----3--3---------3--------3----3--3--3-----------3--3--3--
|-------------------------------------------------------------------

..                 C
|-0-----3-----0----0------
|---1-----1--------1------
|-----0-----0------0------
|------------------2------
|-3-----3-----3----3------
|------------------X-------

      C                   Dm  Csus2   Dm
En silencio me alejare de ti.
     G                 C
No pienso reprocharte nada.
     E7                             Am
Fabricaste una noche infiel en mi morada.
     D7                      G
Olvidándote que de mí eras amada.

       C                      Dm     Csus2   Dm
La gaviota fue remontando el vuelo.
          G                      C
Mientras tú, de amor vivías, desvelo.
        E7                             Am
Te olvidaste de mí sintiendo aquel hechizo.
           D7                         G
Que en su nave te transportaba al paraíso.

         C     Dm     Am
Y ahora tú quieres volver.
         D7           G
Ya no quiero nada contigo.
         C       Dm      Am
Y ahora que me fuiste infiel.
      D7    G      C
No seremos ya ni amigos.
  C
|-0-----3-----0--------------------------0--5--0-----------0--5--0--
|---1-----1------3---------0--------3-------------1-----1-----------
|-----0-----0-------0---------0--------0-------------0--------------  X  2
|----------------------2---------2----------------------------------
|-3-----3-----3--3---------3--------3----3--3--3-----------3--3--3--
|-------------------------------------------------------------------

..                 C
|-0-----3-----0----0------
|---1-----1--------1------
|-----0-----0------0------
|------------------2------
|-3-----3-----3----3------
|------------------X-------

          C               Dm    Csus2   Dm
Mientras tú sentías amor ajeno.
       G                  C
En mis ojos se corría el velo.
       E7                     Am
Descubriendo que no eras mi camino.
       D7                        G
cuando yo te pretendía en mi destino.

       C                      Dm      Csus2   Dm
La gaviota fue remontando el vuelo.
          G                      C
Mientras tú, de amor vivías, desvelo.
        E7                             Am
Te olvidaste de mí sintiendo aquel hechizo.
           D7                         G
Que en su nave te transportaba al paraíso.

         C     Dm     Am
Y ahora tú quieres volver.
         D7           G
Ya no quiero nada contigo.
         C       Dm      Am
Y ahora que me fuiste infiel.
       D7        G     C   (Salida:  Intro)
Me convierto en tu enemigo.

Suggest correction
Give kudos to tab author, rate the tab!
1 2 3 4 5
comments
print report bad tab
guest
You may want to rate the tab now too:
select rating
Wanna post a correction for this tab? Suggest correction