Oops, an error
Loading. Please wait.

Lo Que Un Día Fue No Será Chords

184 views 1 this week
no commentswrite comment
1 2 3 4 5
x 3
add to favorites
launch autoscroll
font size
0
reset
transpose
0
reset
simplify chords
display chords
guitar tuner
×
Best way to learn
"Lo Que Un Día Fue No Será"
Autoscroll
slow
fast
+/-
esc
set tempo
stop
ESTE ES EL INTRO REAL DEL DISCO DE JOSE JOSE,
LO SAQUE TAL Y COMO SE ESCUCHA, ESTA EN LA AFINACION ESTANDART
SAQUE LOS ARREGLOS DEL BAJO TAMBIEN, PIANO, ETC.
AFINA TU LIRA EN ?MI? (AFINACION ESTANDART) E,A,D,G,B,e
Y JALADO;)

SALUDOS PARA LA JOSE VASCONCELOS;*
EL INTRO SE PUEDE TOCAR CON GUITARRA..


RIFF 1 x2 (SE TOCA DOS VECES EL RIFF1 Y DE AHÍ
           VA EL RIFF 2.
C
e|-0------0------0-----3-------3------3----
B|---1------1------1------1------1------1--
G|-----0------0-------------0------0-------
D|-----------------------------------------
A|-3------3------3-----3-------3------3----
E|-----------------------------------------

Continuación...
Dm
e|-3------1------0----1------0-------------|
B|---3------3------3----3------3---3-------|
G|-----2------2-----------2------2---------|
D|-0------0------0----0------0-------------|
A|-----------------------------------------|
E|-----------------------------------------|

RIFF2
e|----------0----0--3--0-------------------|
B|--------1---1----------------------------|
G|------0----------------------------------|
D|----2------------------------------------|
A|--3-------3----3--3--3-------------------|
E|-----------------------------------------|

C/B= LAS NOTAS QUE SE REPRESENTAN ASI, ES SOLO EL BAJEO
     ES PARA DAR MAS ARMONIA Y ARREGLOS ALA CANCION.


C            Cmaj7
En tus manos yo aprendí
  F
A beber agua
 G          Gmaj7
Fui gorrión que se quedó
              C     C/B
Preso en tu jaula.
Am                       A/G
Porque yo corté mis alas,
F                        F/E
Y el alpiste que me dabas
Dm
Fue tan poco y sin embargo
G        G7
Yo te amaba.
 C                Cmaj7
Fue mi canto para ti
     F
Siempre completo
 G          Gmaj7
Sin ti no pude volar
          C      C/B
En otro cielo.
Am               A/G
Pero me dejaste solo
 F                F/E
Confundido y olvidado
 Dm
Y otra mano me ofreció
              G   G7
El fruto anhelado.
 C                 F       Dm
Lo que un día fue no será
              G
Ya no vuelvas a buscarme
         Em       A7
No tengo nada que darte
        Dm           G
De tu alpiste me cansé.
 C             F           Dm
Vete a volar a otro cielo
               G
Y deja abierta tu jaula
         Em           A7
Tal vez otro gorrión caiga,
     Dm   G       C
Pero dale   de beber.
 C            Cmaj7
Déjame encender la luz
    F
No quiero nada
G                    Gmaj7
Si esto hubiera sido ayer
        C        C/B
Lo tomaría.
Am                    A/G
La primera vez que ofreces
 F                    F/E
Para que yo aquí me quede
Dm
Pero sin amarte ya
         G   G7
Que ganaría.
C                 F       Dm
Lo que un día fue no será
              G
Ya no vuelvas a buscarme
         Em       A7
No tengo nada que darte
        Dm           G
De tu alpiste me cansé.
 C             F           Dm
Vete a volar a otro cielo
               G
Y deja abierta tu jaula
         Em           A7
Tal vez otro gorrión caiga,
     Dm   G      C
Pero dale   de beber.

Cmaj7
e|---|
B|---|
G|---|
D|-2-|
A|-3-|
E|---|

Gmaj7
e|---|
B|---|
G|---|
D|---|
A|-2-|
E|-3-|
Suggest correction
Give kudos to tab author, rate the tab!
1 2 3 4 5
comments
print report bad tab
guest
You may want to rate the tab now too:
select rating
Wanna post a correction for this tab? Suggest correction