Oops, an error
Loading. Please wait.

Me Basta Tab

version 1
version 1

Whole song

70 views 3 this week
no commentswrite comment
1 2 3 4 5
3 more votes to show rating
add to favorites
launch autoscroll
font size
0
reset
how to read this tab
guitar tuner
Autoscroll
slow
fast
+/-
esc
set tempo
stop
ME BASTA - JOSE JOSE CON TRIO


UTILIZAR CAPO TRASTE EN EL 1

D - Bm - C#m7 - Bm - E7

e/-----3-----------------------
B/-------4--4/3/0--------------
G/-2/3-------------------------
D/-----------------------------
A/-----------------------------
E/-----------------------------

-2-4/5-4-2-4-0----------0-2/4-2-0-2--
------------------------------------3
-------------------------------------
-------------------------------------
-------------------------------------
-------------------------------------

---------------------10-8-10-8----8-10-8--------12
------11-8---------8------------11------------14--
----8------X4----8--------------------------14----
-10-----------10----------------------------------
--------------------------------------------------
--------------------------------------------------


 Asus2
Sabes lo que dicen por ahi                      Bº
           Bº        E                        G/--3-
pobre ruiseñor donde a caido                  D/--2-
           Bm7               E                A/--3-
dicen que estoy ciego por tu amor             E/--2-
       E         A
y que tu juegas conmigo.


No te pido cuentas corazon
no quiero saber quien es tu dueño
dame lo que tu me puedas dar
corazon que yo lo acepto.

     D/-0----
     A/--4-2-
    D   Bm                   C#m
Me basta con un poco de tu amor
                    D
el que tengas escondido
                    Bm
el que nadie haya querido
    Bm7              E
que mi no me importa no.
    D   Bm                   C#m7
Me basta con un poco de tu amor
                      D
con lo que tengas guardado
                    Bm
con lo que hayas olvidado
     E           A
con eso me quedo yo.

INTERMEDIO

----------------0-2/4-2-0-2--
-4-6/8-6-4-6-2--------------3
-----------------------------
-----------------------------
-----------------------------
-----------------------------

---------------------10-8-10-8----8-10-8--------12
------11-8---------8------------11------------14--
----8------X4----8--------------------------14----
-10-----------10----------------------------------
--------------------------------------------------
--------------------------------------------------

Sabes lo que dicen por ahi
pobre ruiseñor le han sometido
dicen que estoy loco por tu amor
y es verdad loco perdido.

Y es verdad que aveces creo morir
quien te crees que soy yo siento celos
pero un dia tuve que elegir
y ya vez lo que prefiero.
Suggest correction
Give kudos to tab author, rate the tab!
1 2 3 4 5
comments
print report bad tab
guest
You may want to rate the tab now too:
select rating
Wanna post a correction for this tab? Suggest correction