Oops, an error
Loading. Please wait.

Me Basta Tab

version 3
version 3

Whole song

19 views 1 this week
no commentswrite comment
1 2 3 4 5
3 more votes to show rating
add to favorites
launch autoscroll
font size
0
reset
how to read this tab
guitar tuner
Autoscroll
slow
fast
+/-
esc
set tempo
stop
Help us to improve Ultimate-Guitar.com Take our survey!
×
Transcrita por German Alonso Ahumada
gere_walsh@


*Intro:


1. -10-11-13-11-10-10-10/11--8--8--8/10-6--8--5-|
2. -11-13-15-13-11-11-11/13-10-10-10/11-8-10-6--|
3. ---------------------------------------------|
4. ---------------------------------------------|
5. ---------------------------------------------|
6. ---------------------------------------------|


*Verso:


 A#
Sabes lo que dicen por ahí
                           F7
pobre ruiseñor, dónde ha caído

dicen que estoy ciego por tu amor
      D# F7          A#
y que tú  juegas conmigo.


A#
No te pido cuentas corazón
                             F7
no quiero saber quién es tu dueño

dame lo que tú me puedas dar
    D#  F7
corazón, que yo lo acepto.


*Coro:

     (Bajeo)
    D#-Dm-Cm                Dm
Me basta con un poco de tu amor
                   D#
el que tengas escondido
                     Cm
el que nadie haya querido
                        F7
que a mí no me importa, no.
1. ----------------------------20----------|
2. ----------------------22-23----23-22-20-|
3. ----------------------------------------|
4. ----------------------------------------|
5. ----------------------------------------|
6. ----------------------------------------|

     (Bajeo)
    D#-Dm-Cm             Dm
Me basta con poco de tu amor
                      D#
con lo que tengas guardado
                     Cm
con lo que hayas olvidado
                 A#
con eso me quedo yo.


1. -/10-11-13-11-10-10-11-----------------------|
2. -----------------------13~-13-13/15----------|
3. ------------------------------------15-14-15-|
4. ---------------------------------------------|
5. ---------------------------------------------|
6. ---------------------------------------------|


*Verso:


 A#
Sabes lo que dicen por ahí
                           F7
pobre ruiseñor, lo han sometido

dicen que estoy loco por tu amor
          D# F7        A#
y que verdad, loco perdido.


A#
Y es verdad que a veces creo morir
                                  F7
quién te crees que soy, yo tengo celos

pero un día tuve que elegir
      D# F7          A#
y ya ves  lo que prefiero.


*Coro:

     (Bajeo)
    D#-Dm-Cm                Dm
Me basta con un poco de tu amor
                   D#
el que tengas escondido
                     Cm
el que nadie haya querido
                        F7
que a mí no me importa, no.
1. ----------------------------20----------|
2. ----------------------22-23----23-22-20-|
3. ----------------------------------------|
4. ----------------------------------------|
5. ----------------------------------------|
6. ----------------------------------------|

     (Bajeo)
    D#-Dm-Cm             Dm
Me basta con poco de tu amor
                      D#
con lo que tengas guardado
                     Cm
con lo que hayas olvidado
                 F7
con eso me quedo yo.
1. ----------------------------20----------|
2. ----------------------22-23----23-22-20-|
3. ----------------------------------------|
4. ----------------------------------------|
5. ----------------------------------------|
6. ----------------------------------------|


     (Bajeo)
    D#-Dm-Cm                Dm
Me basta con un poco de tu amor
                   D#
el que tengas escondido
                     Cm
el que nadie haya querido
                        F7
que a mí no me importa, no.
1. ----------------------------20----------|
2. ----------------------22-23----23-22-20-|
3. ----------------------------------------|
4. ----------------------------------------|
5. ----------------------------------------|
6. ----------------------------------------|

     (Bajeo)
    D#-Dm-Cm             Dm
Me basta con poco de tu amor
                      D#
con lo que tengas guardado
                     Cm
con lo que hayas olvidado
                 F7
con eso me quedo yo.
1. ----------------------------20----------|
2. ----------------------22-23----23-22-20-|
3. ----------------------------------------|
4. ----------------------------------------|
5. ----------------------------------------|
6. ----------------------------------------|
                                          (Fade Out)
Suggest correction
Give kudos to tab author, rate the tab!
1 2 3 4 5
comments
print report bad tab
guest
You may want to rate the tab now too:
select rating
Wanna post a correction for this tab? Suggest correction