Oops, an error
Loading. Please wait.

Si Me Dejas Ahora Tab

70 views 1 this week
no commentswrite comment
1 2 3 4 5
3 more votes to show rating
add to favorites
launch autoscroll
font size
0
reset
how to read this tab
guitar tuner
×
Best way to learn
"Si Me Dejas Ahora"
Autoscroll
slow
fast
+/-
esc
set tempo
stop
(Piano)

    F#m
e. ------------2-4-5-(2)-----2-4-4-5-(2)-|
B. ----------2---2-2-------2---2-2-2-----|
G. -2------------------------------------|
D. -----4--4----------4--4------------4--|
A. ---4----------------------------------|
E. --------------------------------------|


*Verso:

F#m          Bm
Si me dejas ahora
    E7            A
no seré capaz de sobrevivir
F#m                  Bm
me encadenaste a tu falda
      E7                     A
y enseñaste a mi alma a depender de ti.

           Bm         C#7
Ataste tu piel a mi piel
                F#m
y tu boca a mi boca
             Bm         C#7
clavaste tu mente en la mía
                     F#m
como la espada en la roca
             E
y ahora me dejas
         (E7)                A
como si fuera yo cualquier cosa.

F#m           Bm
Si me dejas ahora
    E                A
no seré capaz de volver a sentir
F#m             Bm
me alejaste de todo
   E7                 A
y ahora dejas que me hunda en el lodo,
           Bm    C#7
me cuesta tanto creer
                 F#m
que no tengas corazón
                       Bm       C#7
que yo he sido en tu cadena de amor
               F#m
tan solo un eslabón
                        E
y en tu escalera un peldaño
                (E7)
al que no te importa pisar
           A
y hacerle daño.


*Coro:

        D                          E7
Estoy preso entre las redes de un poema,
A-A6  E7                  D             E7
eres tu quien me puede ayudar o me condena
 D                    E7
Eres lo mejor de mi pasado
A-A6  E7               D        E7
eres tu quien aun me tiene enamorado.

A  E   D       E7
 Eres tu, sólo tu
A  E   D       E7
 eres tu, sólo tu.


*Verso:

F#m           Bm
Si me dejas ahora
      E7         A
mi espíritu se irá tras de ti
F#m              Bm
cabalgara día y noche
    E7           A
sintiéndose soñador y Quijote.

           Bm         C#7
Ataste tu piel a mi piel
                F#m
y tu boca a mi boca
             Bm         C#7
clavaste tu mente en la mía
                     F#m
como la espada en la roca
             E
y ahora me dejas
         (E7)                A
como si fuera yo cualquier cosa.


*Coro:

        D                          E7
Estoy preso entre las redes de un poema,
A-A6  E7                  D             E7
eres tu quien me puede ayudar o me condena
 D                    E7
Eres lo mejor de mi pasado
A-A6  E7               D        E7
eres tu quien aun me tiene enamorado.

A  E   D       E7
 Eres tu, sólo tu
A  E   D       E7
 eres tu, sólo tu.


(Saxofón)

e. -10~-9h10p9-10-10-9h10h12-14-12~-|
B. ---------------------------------|
G. ---------------------------------|
D. ---------------------------------|
A. ---------------------------------|
E. ---------------------------------|

e. -------------------12~-------10~--14-17~~-|
B. -14-15p14-12----12-----12-10--------------|
G. -------------14---------------------------|
D. ------------------------------------------|
A. ------------------------------------------|
E. ------------------------------------------|


        D                          E7
Estoy preso entre las redes de un poema,
A-A6  E7                  D             E7
eres tu quien me puede ayudar o me condena

A  E   D       E7
 Eres tu, sólo tu
A  E   D       E7
 eres tu, sólo tu.


(Guitarra Eléctrica)

 (..eres tu, sólo tu... eres tu, sólo tu..)
e. ------------------------|-------------------|------------------------|
B. ------------------------|--17b(19)r17-------|------------------------|
G. -/11-9-9--11-11-9-11-9--|-------------16-16-|-16b(18)-16-14----------|
D. ------------------------|-------------------|---------------16-14-14-|
A. ------------------------|-------------------|------------------------|
E. ------------------------|-------------------|------------------------|


e. -------------------------|------------------------------------|
B. ------------17b(19)-17~~-|-17b(19)-17-14----------------------|
G. -(18)r16p1---------------|---------------16-14-16b(18)r16-14~-|
D. -------------------------|------------------------------------|
A. -------------------------|------------------------------------|
E. -------------------------|------------------------------------|


e. ------------------------------|---------------------------------------
B. -----17b(19)r17-17-14-17~~/19-|-(19)r17-14----------------------------
G. -14~--------------------------|------------16-14~-------14-(18)r16-14-
D. ------------------------------|-------------------14h16---------------
A. ------------------------------|---------------------------------------
E. ------------------------------|---------------------------------------


e. ------------------------------------------|
B. ------------------------------------------|
G. -------14-14----16b(18)r16-14----14-------|
D. -14h16-------16---------------16----16-14-|
A. ------------------------------------------|
E. ------------------------------------------|


e. ------------------------------------------------------------------
B. ------------------------------------------------------------------
G. -/14-------/14----------13-14-------14-------14-------16b(18)(18)-
D. -----16-14-----16-14-16-------16-14----16-14----16-14-------------
A. ------------------------------------------------------------------
E. ------------------------------------------------------------------


e. --------------------------|
B. --------------------------|
G. -(18)-16-14~--------------|
D. --------------(Fade Out)--|
A. --------------------------|
E. --------------------------|


Saludos. Los Mochis, Sinaloa.
Suggest correction
Give kudos to tab author, rate the tab!
1 2 3 4 5
comments
print report bad tab
guest
You may want to rate the tab now too:
select rating
Wanna post a correction for this tab? Suggest correction