Oops, an error
Loading. Please wait.

Sin Ella Tab

48 views 1 this week
no commentswrite comment
1 2 3 4 5
3 more votes to show rating
add to favorites
×
Save as Personal and add changes to this tab that will be seen only by you. Learn more ›
×
You can save this tab as Personal to edit and correct it or add notes. All changes will be seen only by you. Learn more »
save as personal
new!
launch autoscroll
font size
0
reset
how to read this tab
guitar tuner
Autoscroll
slow
fast
+/-
esc
set tempo
stop
Esta es una corrección de mi pasada transcripción, les aseguro
que esta es 100% correcta, acordes y pisadas, por favor eliminen
la otra y suban esta en su lugar. Gracias!

*Intro:

   F#m        B         G       A  F#m          B     G       A
1. -------------------7-----------------------------7-----------------|
2. -----------------7---------------10-7---10-----7---7-----------10~-|
3. -----7-9-6-7---8-----7---7-9-6-9------9----9-8---------7-9-6-9-----|
4. ---7---------9---------9-----------------------------9-------------|
5. -9-----------------------------------------------------------------|
6. -------------------------------------------------------------------|


*Verso:

F#m      B                G                A
Toda la noche esperé que viniera ella pero no llegó
F#m            B                       G
y sollozando ahora bien que se lo que es pasar
A              *F#m
un día mas sin ella,

   *F#m            B             G             A
1. -------------------------------------------------------------|
2. -------------------------------------------------------------|
3. -11-11-11-11-11---------9-11-12-12-12-12-12----------------9-|
4. ----------------9-9-9-9---------------------11-11-11-11-12---|
5. -------------------------------------------------------------|
6. -------------------------------------------------------------|

   F#m        B         G
1. -----------------------|
2. -7-7-7-7-7---------7-8-|
3. -----------------9-----|
4. -----------9-9-9-------|
5. -----------------------|
6. -----------------------|

A
un día mas sin ella.

1. --------------------------------------------|
2. -------7---------------------8-----------10-|
3. -----6---9-8---6-8---6-8---7---9-8---6-9----|
4. ---7---------7-----7-----9-----9-9-7--------|
5. -9------------------------------------------|
6. --------------------------------------------|

F#m       B                 G              A
No tiene caso llorar si no voy a poder llenar el lugar
    F#m             B                  G
que hoy vacio esta sin su calor, que triste es pasar
A              *F#m
un día mas sin ella,

   *F#m            B             G             A
1. -------------------------------------------------------------|
2. -------------------------------------------------------------|
3. -11-11-11-11-11---------9-11-12-12-12-12-12----------------9-|
4. ----------------9-9-9-9---------------------11-11-11-11-12---|
5. -------------------------------------------------------------|
6. -------------------------------------------------------------|

   F#m        B         G
1. -----------------------|
2. -7-7-7-7-7---------7-8-|
3. -----------------9-----|
4. -----------9-9-9-------|
5. -----------------------|
6. -----------------------|

A
un día mas sin ella.

1. --------------------------------------------|
2. -------7---------------------8-----------10-|
3. -----6---9-8---6-8---6-8---7---9-8---6-9----|
4. ---7---------7-----7-----9-----9-9-7--------|
5. -9------------------------------------------|
6. --------------------------------------------|

G
Un día la conocí y con ella fuí a un mundo feliz
       F#m            B                  G
me entregó su amor, amor que despues llorando extrañé
   A                    F#m  B  G  A <---solamente el bajo..
pasando un día mas sin ella.

   F#m         B     G       A
1. ----------------7-----------------|
2. 10-7---10-----7---7-----------10~-|
3. -----9----9-8---------7-9-6-9-----|
4. --------------------9-------------| <--Punteo 
Suggest correction
Give kudos to tab author, rate the tab!
1 2 3 4 5
comments
print report bad tab
guest
Wanna post a correction for this tab? Suggest correction