Oops, an error
Loading. Please wait.

Una Mañana Tab

82 views 1 this week
no commentswrite comment
1 2 3 4 5
3 more votes to show rating
add to favorites
launch autoscroll
font size
0
reset
how to read this tab
guitar tuner
Autoscroll
slow
fast
+/-
esc
set tempo
stop
Help us to improve Ultimate-Guitar.com Take our survey!
×
 Mi nombre es ricardo ramirez lozano y kiero dedicarle esta transcripcion
a jessica jazmin martinez calderon que me ama y que la amo de manera
loka y profunda como todo lo que imaginamos

primero esta la tab del ritmo y como se hacen los cambio
depues viene la letra con sus acordes no se como se llamen pero al
final esta la descripcion por favor si alguien sabe como se llaman
manden un mail se los agradecere mucho

esta version es tal cual
viene en el disco

arpejio
e ---------------------------------
B -----3------3------3---3--3------             (fig. 1)
G -----5------5------3---3--3------
D --5------4------3------2--2------    aqui se vuelve a empesar
A -----------------------3---------    inmediatamente o se cambia
E --5------4------3------------3-4-    a la fig 2 segun la cancion


e -----------------------------
B -----6------6------6------6--
G -----8------8------7------5--   (fig. 2)
D --8------7------7------5-----
A -----------------------------
E --8------7------6------6-----


e ------------------------------------------------------------
B --3--3-----3---3--3-----3--3----3--3----3--4--4-------4--4--
G --3--3-----3---2--2-----2--2----2--2----2--2--2-------2--2--
D --2--2-----2---1--1-----1--1----3--3----3--2--2-------2--2-- x2
A --3--3-----3--------------------1--1----1-------------------
E ---------------1-----1---------------------3-------3--------

   y para pasar de fig. 2 a fig. 1 haces un puente con Mi7 en lugar de
la ultima posicion que es mas o menos asi

                                  * este se rasguea hacia abajo
                                     como 8 veces mas o menos
e --------------------------------------
B --3--3-----3---3--3-----3--3----3--5--
G --3--3-----3---2--2-----2--2----2--7--
D --2--2-----2---1--1-----1--1----3--6-- x2
A --3--3-----3--------------------1--7--
E ---------------1-----1----------------
                                     * y este solo 3 para volver
                                       a empezar con la fig. 1
        LA   SOL#, SOLm, SImaj7
  una mañana
      LA   SOL#  SOLm  SImaj7
una mañana linda
          DO  SI*
como una flor
   LA#maj7 LA#maj7*     LA  SOL# SOLm SImaj7
tu coo ra zon al sol le moooostraraaassss

una mañana

una mañana linda

MI corazon

como una flor a ti se entregara

SImaj7   FA
linda sera

cuando me digas
LA#**        SOL*
creo en tu amor

me digas
       SImaj7    FA
que no sientes temor
                   LA#**
y cuando salga el sol
  MI7
seraa


una mañana

una mañana linda

como una flor

como el amor

que siempre te dare


linda sera

cuando me digas

creo en tu amor

me digas

que no sientes temor

y cuando salga el sol

seraa

         E A D G B E
La       5 0 5 5 3 0
Sol#     4 0 4 5 3 0
Solm     3 0 3 3 3 0
Sol*     3 0 2 2 4 0
Simaj7   0 3 2 3 3 0
Do*      8 0 8 8 6 0
Si*      7 0 7 8 6 0
La#maj7  6 0 7 7 6 0
La#maj7* 6 0 5 5 6 0
Fa       1 0 1 2 3 0
La#**    0 1 3 2 3 0
Mi7      0 7 6 7 5 0

espero les guste no esta dificil pero tngan mucha paciencia
mas si no estan acostumbrados a estos acordes yo ni se como
se llaman

 jazz t amoooooooooooooooooooooooooooooooooooooooo
ramlozric@
Suggest correction
Give kudos to tab author, rate the tab!
1 2 3 4 5
comments
print report bad tab
guest
You may want to rate the tab now too:
select rating
Wanna post a correction for this tab? Suggest correction