Oops, an error
Loading. Please wait.

Vamos A Darnos Tiempo Tab

123 views 1 this week
no commentswrite comment
1 2 3 4 5
3 more votes to show rating
add to favorites
launch autoscroll
font size
0
reset
how to read this tab
guitar tuner
Autoscroll
slow
fast
+/-
esc
set tempo
stop
Help us to improve Ultimate-Guitar.com Take our survey!
×
La canción yo la transcribí en Em.. si desean que suene como la original
solo deben afinar su guitarra 1 tono abajo


INTRO
Guitarra 1
     Q    Q    Q    Q       Q    Q    Q    Q       Q    Q    Q    Q
D||-------8----7----8----|-------8----7----8----|-------8----7----8----|
A||----------------------|----------------------|----------------------|
F||----------------------|----------------------|----------------------|
C||----------------------|----------------------|----------------------|
G||--7-------------------|--7-------------------|--7-------------------|
D||----------------------|----------------------|----------------------|


  Q    Q    Q    Q       Q    Q    Q    Q       Q    Q    Q    Q
-------8----7----8----|-------8----7----8----|-------8----7----8----|
----------------------|----------------------|----------------------|
----------------------|----------------------|----------------------|
----------------------|----------------------|----------------------|
--7-------------------|--7-------------------|--7-------------------|
----------------------|----------------------|----------------------|


  Q    Q    Q    Q       Q     Q    Q     Q       W
-------8----7----8----|--7---------------------|-------------------||
----------------------|-------10----8----------|-------------------||
----------------------|------------------10----|--9----------------||
----------------------|------------------------|-------------------||
----------------------|------------------------|-------------------||
--0-------------------|------------------------|-------------------||

Guitarra 2
      Q     E   H        E              Q     E   H        E
D||--20----19---------------|-------|--13----12---------------|-------|
A||------------17-----------|-------|------------10-----------|-------|
F||-------------------------|-------|-------------------------|-------|
C||-------------------------|-------|-------------------------|-------|
G||-------------------------|-------|-------------------------|-------|
D||-------------------------|-------|-------------------------|-------|


  Q    E  H        E             Q    E  H        E
--8----7--------------|-------|----------------------|-----|-----||
----------5-----------|-------|--6----5--------------|-----|-----||
----------------------|-------|----------2-----------|-----|-----||
----------------------|-------|----------------------|-----|-----||
----------------------|-------|----------------------|-----|-----||
----------------------|-------|----------------------|-----|-----||


Estrofa 1

Em
Que difícil es
            Am
cuando las cosas no van bien
Em
tu no estas feliz
            Am
 y eso me pasa a mí también
 Cmaj
Por que hemos perdido
       Am
la frescura del amor
 Cmaj           Am
El respeto por los dos
 Cmaj                 C7        B7
discutiendo a cada instante sin razón


Estrofa 2

Em
Que difícil es
             Am
hablarte y tu no comprender
Em
conversar lo mismo
         Am
y enfadarnos otra vez
 Cmaj
por que no me dejas
        Am
que me valla por un tiempo
Cmaj               Am
sin decirme que al momento
  Cmaj               C7        B7
te vas a quitar la vida si me voy


Coro

E7                                 Am  Am7
pero antes déjame decirte que te quiero
         D7                           G
que tu amor es la única cosa que yo tengo
    Cmaj                                  Am  Am7
y me voy de tu lado por que no quiero perderlo
        B7                   Em
lo que tu y yo necesitamos solo es tiempo
     E7                                Am   Am7
tiempo para poder curar nuestras heridas
           D7                        G
tiempo para empezar de nuevo nuestras vidas
             Cmaj                Am   Am7
tiempo para saber si tu me necesitas
       F#7                 B7              Em
tiempo para saber si me quieres o me olvidas.

>Intro
>
>Estrofa 2
>
>Coro
>
>Intro y finaliza con el acorde Am pero en esta posicion: 577555


Dedicada a todas mis fans jaja y a mi musa... ella sabe quien es
Suggest correction
Give kudos to tab author, rate the tab!
1 2 3 4 5
comments
print report bad tab
guest
You may want to rate the tab now too:
select rating
Wanna post a correction for this tab? Suggest correction