Oops, an error
Loading. Please wait.

Y Quien Puede Ser Tab

37 views 1 this week
no commentswrite comment
1 2 3 4 5
3 more votes to show rating
add to favorites
launch autoscroll
font size
0
reset
how to read this tab
guitar tuner
×
Best way to learn
"Y Quien Puede Ser"
Autoscroll
slow
fast
+/-
esc
set tempo
stop
*Intro:


   Cm                              Fm              Cm              G7              Cm
1. -------------------|-----3-----3-4-|-------------3-|---1-3---1-3-1-|---------------|
2. -------------------|-4-6---4-6-----|-3-4-6-3-4-6---|-4-----4-------|-3-4-6-3-4-6-4-|
3. -------------------|---------------|---------------|---------------|---------------|
4. -------------------|---------------|---------------|---------------|---------------|
5. -3-3-3-3-3-3-3-3-3-|---------------|---------------|---------------|---------------|
6. -------------------|---------------|---------------|---------------|---------------|


*Verso:


      Cm             Fm
Yo no sé que le ha pasado
                      Cm
que la encuentro pensativa
                G7
ante todo indiferente
                   Cm
preocupada y distraida.


                Fm
SI LA miro fijamente
      A#7         D#
no sostiene la mirada
                   G7
como si temiera a verse
                 Cm
por sus ojos delatada.


*Coro:


              A#7
Y quíen puede ser
                 D#
si es que no soy yo
                  G7             Cm
quíen me habrá borrado de su corazón,
              A#7
y quíen puede ser
                 D#
si es que no soy yo
              G7              Cm
quíen habrá podido darle más amor.


              A#7
Y quíen puede ser
                 D#
si es que no soy yo
                  G7             Cm
quíen me habrá borrado de su corazón,
              A#7
y quíen puede ser
                 D#
si es que no soy yo
              G7              Cm
quíen habrá podido darle más amor.


*Verso:


        Cm          Fm
No la siento como antes
                         Cm
y en mis brazos esta inquieta
                    G7
una excusa busca siempre
                   Cm
cuando quiero retenerla.


                   Fm
Ya son muchas ocasiones
        A#7               D#
que al querer decir mi nombre
            G7
insegura titubea
                      Cm
y mis sueños me los rompe.


*Coro:


              A#7
Y quíen puede ser
                 D#
si es que no soy yo
                  G7             Cm
quíen me habrá borrado de su corazón,
              A#7
y quíen puede ser
                 D#
si es que no soy yo
              G7              Cm
quíen habrá podido darle más amor.


              A#7
Y quíen puede ser
                 D#
si es que no soy yo
                  G7             Cm
quíen me habrá borrado de su corazón,
              A#7
y quíen puede ser
                 D#
si es que no soy yo
              G7              Cm
quíen habrá podido darle más amor.


1. -----10-8-10--10-8----8---------------------------|
2. -8-8---------------11---8--8-8-11-9-9-8-----9-8---|
3. ----------------------------------------7-7-----8-|
4. --------------------------------------------------|
5. --------------------------------------------------|
6. --------------------------------------------------|

1. -----10-8-10--13-11--------------------------------------------|
2. -8-8----------------13-----------------------------------------|
3. -----------------------15-12--12-12-15-13-13-12-------13-12----|
4. ------------------------------------------------12-12-------10-|
5. ---------------------------------------------------------------|
6. ---------------------------------------------------------------|


              A#7
Y quíen puede ser
                 D#
si es que no soy yo
                  G7             Cm
quíen me habrá borrado de su corazón,
              A#7
y quíen puede ser
                 D#
si es que no soy yo
              G7              Cm
quíen habrá podido darle más amor.


1. -----10-8-10--10-8----8---------------------------|
2. -8-8---------------11---8--8-8-11-9-9-8-----9-8---|
3. ----------------------------------------7-7-----8-|
4. --------------------------------------------------|
5. --------------------------------------------------|
6. --------------------------------------------------|
                                                 (Fade Out)
Suggest correction
Give kudos to tab author, rate the tab!
1 2 3 4 5
comments
print report bad tab
guest
You may want to rate the tab now too:
select rating
Wanna post a correction for this tab? Suggest correction