Oops, an error
Loading. Please wait.

Ya Lo Ves No Valio La Pena Tab

44 views 1 this week
no commentswrite comment
1 2 3 4 5
3 more votes to show rating
add to favorites
launch autoscroll
font size
0
reset
how to read this tab
guitar tuner
×
Best way to learn
"Ya Lo Ves No Valio La Pena"
Autoscroll
slow
fast
+/-
esc
set tempo
stop
*Corrección: 18/09/2010 - 20/02/2003   |
=======================================*

Bellísima canción de José José aunque se llama No Valió la Pena
solamente pero bueno. Sublime trabajo de Raúl, el transcriptor de la otra
versión, aunque siento que está un poco adornada de más, pero sin duda va
en la dirrección correcta. Si algun principiante se pregunta porque hay
acordes no tan comunes es porque son usados para darle un toque más
Jazzero, a como es la canción. Al final de la transcripción pueden ver como
se hacen estos acordes, pero si aún así es difícil véanla de esta forma:

Gmaj7 = G , Dmadd9/B = Bm7 , Cmaj7 = C , Em7 = Em , Am7 = Am , etc.

-------------------------------------------------------


(Saxofón)

                  Gmaj7  Em7      Am7  D7 Gmaj7   Em7      Am7   D7
e. --------------------------------7~~-7~------------------10~~-8-10-7~-|
B. ----------7-8-9-10~-8-10~-8---8---------10~-10-10-8---8--------------|
G. -7-8-9-10-------------------9-----------------------9----------------|
D. ---------------------------------------------------------------------|
A. ---------------------------------------------------------------------|
E. ---------------------------------------------------------------------|
   | esto se toca |
   |  muy rápido  |


      Gmaj7
Ya lo ves
             A#º
no valió la pena
           Am7  D7
enojarnos tanto
        Am7
maltratarnos
            D7  D
y decirnos cosas
            Gmaj7 Em7 Am7 D7
que jamás pensamos.


Dmadd9/B
El amor no es así
       E7
y yo quiero advertirte
     Am7           Cm7
que tomemos cuidado
              Gmaj7   Em7
si seguimos peleando
                  Am7  D7
cualquier día de estos
             Gmaj7 Dm7-Gsus4-G7
se nos va la mano.


   Cmaj7                  D7
El amor no merece castigo
    Bm7              E7
al amor es preciso mimarlo
        Am7                  D7  D7/A
si no quieres que un día se seque
            Gmaj7  Dm7-Gsus4-G7
tienes que regarlo.


   Cmaj7                      D7
El amor todo puede arreglarlo
       Bm7                E7
y lo nuestro es amor de verdad
         Am7             D7
dame un beso, abrázame fuerte
                  Gmaj7
y no hay mas que hablar.


(Saxofón)

   Gmaj7    Em7       Am7    D7    Gmaj7   Em7          Am7  D7
e. --------------------7~-7~----7~----------------------10~~-8-10-7~-|
B. ---10-10-10~~-8---8-------10-------10-10-8-10-8~---8--------------|
G. -7--------------9----------------7---------------9----------------|
D. ------------------------------------------------------------------|
A. ------------------------------------------------------------------|
E. ------------------------------------------------------------------|


      Gmaj7
Ya lo ves
             A#º
no valió la pena
           Am7  D7
enojarnos tanto
        Am7
maltratarnos
            D7  D
y decirnos cosas
            Gmaj7 Em7 Am7 D7
que jamás pensamos.


Dmadd9/B
El amor no es así
       E7
y yo quiero advertirte
     Am7           Cm7
que tomemos cuidado
              Gmaj7   Em7
si seguimos peleando
                  Am7  D7
cualquier día de estos
             Gmaj7 Dm7-Gsus4-G7
se nos va la mano.


   Cmaj7                  D7
El amor no merece castigo
    Bm7              E7
al amor es preciso mimarlo
        Am7                  D7  D7/A
si no quieres que un día se seque
            Gmaj7  Dm7-Gsus4-G7
tienes que regarlo.


   Cmaj7                      D7
El amor todo puede arreglarlo
       Bm7                E7
y lo nuestro es amor de verdad
         Am7             D7
dame un beso, abrázame fuerte
                    D#
y no hay mas que hablar.


(Saxofón)

    D#                                                            Gmaj7
e. -----------------/13-11-10-----------------------------------------
B. ---------------------------13-11-----------------------------------
G. ------7-10-8-7-8-----------------12-10-8-7-7----10-----------------
D. -8-10----------------------------------------10----10-----10-----9-
A. ------------------------------------------------------10~----10~---
E. -------------------------------------------------------------------


e. -------------/14-12-10------------------------------|
B. -10-9-8-7-8~-----------10-8-7---10---8---5---5~-3~~-|
G. ------------------------------7----9---7---4--------|
D. ----------------------------------------------------|
A. ----------------------------------------------------|
E. ----------------------------------------------------|


_____________________________________________


   Gmaj7   A#º  Dmadd9/B  Gsus4  Cmaj7  D7/A
e. --x------x-------x-------3------x-----5-----|
B. --3------2-------3-------3------0-----7-----|
G. --4------0-------2-------5------0-----5-----|
D. --4------2-------3-------3------2-----7-----|
A. --x------1-------2-------5------3-----5-----|
E. --3----------------------3------------5-----|


*Dudas o comentario a mi e-mail: gerewalsh@
Suggest correction
Give kudos to tab author, rate the tab!
1 2 3 4 5
comments
print report bad tab
guest
You may want to rate the tab now too:
select rating
Wanna post a correction for this tab? Suggest correction