Oops, an error
Loading. Please wait.

De Los Pagos Del Tiempo Chords

version 2
version 2

Whole song

26 views 1 this week
no commentswrite comment
1 2 3 4 5
3 more votes to show rating
add to favorites
launch autoscroll
font size
0
reset
transpose
0
reset
display chords
guitar tuner
×
Best way to learn
"De Los Pagos Del Tiempo"
Autoscroll
slow
fast
+/-
esc
set tempo
stop
ATAME: José Larralde/De los Pagos del Tiempo

     José Larralde
     De los Pagos del Tiempo/Transcripto por:Reginaldo E. Vargas
     regi_naldo@

e||--4--  --4--  --4--  --5--  --4--
B||--6--  --5--  --4--  --7--  --5--
G||--6--  --6--  --5--  --6--  --4-- 
D||--6--  --6--  --6--  --4--  --6--
A||--4--  --4--  --6--  --4--  --7--
E||--4--  --4--  --4--  -----  -----
    C#    C#m   G#   F#m   D#


José Larralde/De los Pagos del Tiempo (milonga)      


INTRO: C#-G#-C#-G#-DO#

C#m              G#
 De los pagos del tiempo me he llegao
                  C#m                F#m
y a los pagos del tiempo he de seguir
            D#                    G#
rejuntando majadas de vergüenzas cansadas
                   C#m               F#m
pa'brindarle el resuello de un sentir.
             D#                    G#
 Rejuntando majadas de vergüenzas cansadas
                   C#m
pa'brindarle el resuello de un sentir.

C#m                G# 
 Y en los campos de naides pastoriar
                C#m             F#m
la guachada que sola se ha quedao
                    D#                   G#
y en los postes del hambre via'cortar el alambre
                  C#m             F#m
pa'que naides se sienta acorralado.
                     D#                   G#
 Y en los postes del hambre via'cortar el alambre
                  C#m
pa'que naides se sienta acorralado.

C#                 G#
 Pueda ser que me aguante hasta llegar
               C#                 C#m
este flete de sueños que he montao
                 G#                                         C#m  F#m
y pa'arrear despacito sin perradas ni gritos ni vergüenzas cansadas
                     D#                       G#
o en la cruz de un camino ha de arriarme el destino
                C#m
masticándome el alma.

C#m              G#
 De los pagos del tiempo me he llegao 
                  C#m                F#m
y a los pagos del tiempo he de seguir
                   D#                    G#
nunca digan que es nunca la esperanza se trunca
                     C#m            F#m
cuando el hombre se arruga al sufrir.
                    D#                    G#
 Nunca digan que es nunca la esperanza se trunca
                     C#m   
cuando el hombre se arruga al sufrir. 

C#m           G#
 Si lastima la nada del no sé
                     C#m         F#m  
y el sentir nunca es nada pa'saber
                D#                      G#
si la duda se agranda la conciencia se ablanda
                 C#m   F#m
y el vivir es distancia. 
                 D#                      G#
 Si la duda se agranda la conciencia se ablanda
                 C#m
y el vivir es distancia. 

C#                 G#
 Pueda ser que me aguante hasta llegar
               C#                 C#m
este flete de sueños que he montao
                 G#                                         C#m  F#m
y pa'arrear despacito sin perradas ni gritos ni vergüenzas cansadas
                     D#                       G#
o en la cruz de un camino ha de hallarme el destino
                C#m
masticandome el alma...

--------------------------------------------------------------------------
Ejemplos de arpegios de milonga:

            
            C#m                        G#
e||-----4--------4--------4--|----4--------4--------4--
B||--------5--------5--------|-------4--------4--------
G||--------------------6-----|-------------------5-----
D||-----------6--------------|----------6--------------
A||--4-----------------------|-------------------------
E||--------------------------|-4-----------------------      


             F#m                        D#
e||-----5--------5--------5--|----4--------4--------4--
B||--------7--------7--------|-------5--------5--------
G||-----------6--------6-----|-------------------4-----
D||--4-----------------------|----------6--------------
A||--------------------------|-7-----------------------
E||--------------------------|-------------------------      

-----------------------------------------------------------------------------
Nota: Si tienen dificultades para ejecutar los anteriores arpegios 
 pongan un transporte(capotraste) en el 4to casillero(traste) de la guitarra.
INQUIETUDES, CRITICAS Y SUGERENCIAS ESCRIBANME A: regi_naldo@
Suggest correction
Give kudos to tab author, rate the tab!
1 2 3 4 5
comments
print report bad tab
guest
You may want to rate the tab now too:
select rating
Wanna post a correction for this tab? Suggest correction