Oops, an error
Loading. Please wait.

El Porque Tab

36 views 1 this week
no commentswrite comment
1 2 3 4 5
3 more votes to show rating
add to favorites
launch autoscroll
font size
0
reset
how to read this tab
guitar tuner
Autoscroll
slow
fast
+/-
esc
set tempo
stop
Help us to improve Ultimate-Guitar.com Take our survey!
×
Creo que es mas fácil con un transporte en el tercer traste
(Pongo creo, porque no tengo un transporte y no puedo probarlo :P )

Intro:

e-|-----------------------------------------------|
B-|--------5-6-------5-6-----3-----5----3-----5---|
G-|------5---5-----5---5-------4---4------4---4---|
D-|----5---------5---------------5----------5-----|
A-|--3---------3---------------------5------------|
E-|-----------------------3-----------------------|

e-|---------------------------------------------------|
B-|----5-----6---5-----6----3-----5----3---5h3--------|
G-|------5---5-----5---5------4---4------4-----4------|
D-|--------5---------5----------5----------------5----|
A-|--3---------3---------------------5------------(3)-|
E-|-----------------------3---------------------------|

Verso:

e-|-----------------------------------------------|
B-|----5-----6---5-----6-----3-----5----3-----5---|
G-|------5---5-----5---5-------4---4------4---4---|
D-|--------5---------5-----------5----------5-----|
A-|-(3)--------3----------------------5-----------|
E-|-----------------------3-----------------------|
                   Bendito...

e-|-----------------------------------------------|
B-|----5-----6---5-----6-----3-----5----3-----5---|
G-|------5---5-----5---5-------4---4------4---4---|
D-|--------5---------5-----------5----------5-----|
A-|--3---------3----------------------5-----------|
E-|-----------------------3-----------------------|

e-|--------------3-----------5-----6--------------|
B-|----5-----6-----5---6-------6---6-----3-----5--|
G-|------5---5-------5-5---------5---------4---4--|
D-|--------5--------------3------------------5----|
A-|--3---------3---------------------3h5----------|
E-|-----------------------------------------------|

e-|-----------------------------------------------|
B-|----5-----6---5-----6-----3-----5----3-----5---|
G-|------5---5-----5---5-------4---4------4---4---|
D-|--------5---------5-----------5----------5-----|
A-|--3---------3----------------------5-----------|
E-|-----------------------3-----------------------|
                Porque tengo razón...

e-|-----------------------------------------------|
B-|----5-----6---5-----6-----3-----5----3-----5---|
G-|------5---5-----5---5-------4---4------4---4---|
D-|--------5---------5-----------5----------5-----|
A-|--3---------3----------------------5-----------|
E-|-----------------------3-----------------------|

e-|---------------------------------------------------|
B-|----5-----6---5-----6----3-----5----3---5h3--------|
G-|------5---5-----5---5------4---4------4-----4------|
D-|--------5---------5----------5----------------5----|
A-|--3---------3---------------------5------------(3)-|
E-|-----------------------3---------------------------|


Repite Verso x4


-------------> Lazaro-za <-------------

si hay algún error me chiflan, porque no soy guitarrista y seguro
le pifie como loco, saludos
Suggest correction
Give kudos to tab author, rate the tab!
1 2 3 4 5
comments
print report bad tab
guest
You may want to rate the tab now too:
select rating
Wanna post a correction for this tab? Suggest correction